  0
SECTION
  2
HEADER
  9
$ACADVER
  1
AC1015
  9
$ACADMAINTVER
 70
     6
  9
$DWGCODEPAGE
  3
ANSI_1254
  9
$INSBASE
 10
0.0
 20
0.0
 30
0.0
  9
$EXTMIN
 10
0.0
 20
0.0
 30
0.0
  9
$EXTMAX
 10
279.4
 20
215.9
 30
0.0
  9
$LIMMIN
 10
0.0
 20
0.0
  9
$LIMMAX
 10
279.4
 20
215.9
  9
$ORTHOMODE
 70
     0
  9
$REGENMODE
 70
     1
  9
$FILLMODE
 70
     1
  9
$QTEXTMODE
 70
     0
  9
$MIRRTEXT
 70
     1
  9
$LTSCALE
 40
1.0
  9
$ATTMODE
 70
     1
  9
$TEXTSIZE
 40
3.5
  9
$TRACEWID
 40
1.0
  9
$TEXTSTYLE
  7
Standard
  9
$CLAYER
  8
0
  9
$CELTYPE
  6
ByLayer
  9
$CECOLOR
 62
   256
  9
$CELTSCALE
 40
1.0
  9
$DISPSILH
 70
     0
  9
$DIMSCALE
 40
1.0
  9
$DIMASZ
 40
3.5
  9
$DIMEXO
 40
1.0
  9
$DIMDLI
 40
3.75
  9
$DIMRND
 40
0.0
  9
$DIMDLE
 40
0.0
  9
$DIMEXE
 40
1.0
  9
$DIMTP
 40
0.0
  9
$DIMTM
 40
0.0
  9
$DIMTXT
 40
3.5
  9
$DIMCEN
 40
2.5
  9
$DIMTSZ
 40
0.0
  9
$DIMTOL
 70
     0
  9
$DIMLIM
 70
     0
  9
$DIMTIH
 70
     1
  9
$DIMTOH
 70
     1
  9
$DIMSE1
 70
     0
  9
$DIMSE2
 70
     0
  9
$DIMTAD
 70
     1
  9
$DIMZIN
 70
     0
  9
$DIMBLK
  1

  9
$DIMASO
 70
     1
  9
$DIMSHO
 70
     1
  9
$DIMPOST
  1

  9
$DIMAPOST
  1

  9
$DIMALT
 70
     0
  9
$DIMALTD
 70
     3
  9
$DIMALTF
 40
0.0393700787
  9
$DIMLFAC
 40
1.0
  9
$DIMTOFL
 70
     1
  9
$DIMTVP
 40
0.0
  9
$DIMTIX
 70
     0
  9
$DIMSOXD
 70
     0
  9
$DIMSAH
 70
     0
  9
$DIMBLK1
  1

  9
$DIMBLK2
  1

  9
$DIMSTYLE
  2
ISO-25
  9
$DIMCLRD
 70
     0
  9
$DIMCLRE
 70
     0
  9
$DIMCLRT
 70
     0
  9
$DIMTFAC
 40
1.0
  9
$DIMGAP
 40
1.524
  9
$DIMJUST
 70
     0
  9
$DIMSD1
 70
     0
  9
$DIMSD2
 70
     0
  9
$DIMTOLJ
 70
     0
  9
$DIMTZIN
 70
     0
  9
$DIMALTZ
 70
     0
  9
$DIMALTTZ
 70
     0
  9
$DIMUPT
 70
     0
  9
$DIMDEC
 70
     2
  9
$DIMTDEC
 70
     2
  9
$DIMALTU
 70
     2
  9
$DIMALTTD
 70
     3
  9
$DIMTXSTY
  7
Standard
  9
$DIMAUNIT
 70
     0
  9
$DIMADEC
 70
     2
  9
$DIMALTRND
 40
0.0
  9
$DIMAZIN
 70
     0
  9
$DIMDSEP
 70
    44
  9
$DIMATFIT
 70
     3
  9
$DIMFRAC
 70
     0
  9
$DIMLDRBLK
  1

  9
$DIMLUNIT
 70
     2
  9
$DIMLWD
 70
    -2
  9
$DIMLWE
 70
    -2
  9
$DIMTMOVE
 70
     0
  9
$LUNITS
 70
     2
  9
$LUPREC
 70
     2
  9
$SKETCHINC
 40
1.0
  9
$FILLETRAD
 40
10.0
  9
$AUNITS
 70
     0
  9
$AUPREC
 70
     2
  9
$MENU
  1
.
  9
$ELEVATION
 40
0.0
  9
$PELEVATION
 40
0.0
  9
$THICKNESS
 40
0.0
  9
$LIMCHECK
 70
     0
  9
$CHAMFERA
 40
0.0
  9
$CHAMFERB
 40
0.0
  9
$CHAMFERC
 40
0.0
  9
$CHAMFERD
 40
0.0
  9
$SKPOLY
 70
     0
  9
$TDCREATE
 40
2458985.708811794
  9
$TDUCREATE
 40
2458985.583811794
  9
$TDUPDATE
 40
2458985.708812141
  9
$TDUUPDATE
 40
2458985.583812141
  9
$TDINDWG
 40
0.0000000116
  9
$TDUSRTIMER
 40
0.0000000116
  9
$USRTIMER
 70
     1
  9
$ANGBASE
 50
0.0
  9
$ANGDIR
 70
     0
  9
$PDMODE
 70
     0
  9
$PDSIZE
 40
-1.0
  9
$PLINEWID
 40
0.0
  9
$SPLFRAME
 70
     0
  9
$SPLINETYPE
 70
     6
  9
$SPLINESEGS
 70
     8
  9
$HANDSEED
  5
109
  9
$SURFTAB1
 70
     6
  9
$SURFTAB2
 70
     6
  9
$SURFTYPE
 70
     6
  9
$SURFU
 70
     6
  9
$SURFV
 70
     6
  9
$UCSBASE
  2

  9
$UCSNAME
  2

  9
$UCSORG
 10
0.0
 20
0.0
 30
0.0
  9
$UCSXDIR
 10
1.0
 20
0.0
 30
0.0
  9
$UCSYDIR
 10
0.0
 20
1.0
 30
0.0
  9
$UCSORTHOREF
  2

  9
$UCSORTHOVIEW
 70
     0
  9
$UCSORGTOP
 10
0.0
 20
0.0
 30
0.0
  9
$UCSORGBOTTOM
 10
0.0
 20
0.0
 30
0.0
  9
$UCSORGLEFT
 10
0.0
 20
0.0
 30
0.0
  9
$UCSORGRIGHT
 10
0.0
 20
0.0
 30
0.0
  9
$UCSORGFRONT
 10
0.0
 20
0.0
 30
0.0
  9
$UCSORGBACK
 10
0.0
 20
0.0
 30
0.0
  9
$PUCSBASE
  2

  9
$PUCSNAME
  2

  9
$PUCSORG
 10
0.0
 20
0.0
 30
0.0
  9
$PUCSXDIR
 10
1.0
 20
0.0
 30
0.0
  9
$PUCSYDIR
 10
0.0
 20
1.0
 30
0.0
  9
$PUCSORTHOREF
  2

  9
$PUCSORTHOVIEW
 70
     0
  9
$PUCSORGTOP
 10
0.0
 20
0.0
 30
0.0
  9
$PUCSORGBOTTOM
 10
0.0
 20
0.0
 30
0.0
  9
$PUCSORGLEFT
 10
0.0
 20
0.0
 30
0.0
  9
$PUCSORGRIGHT
 10
0.0
 20
0.0
 30
0.0
  9
$PUCSORGFRONT
 10
0.0
 20
0.0
 30
0.0
  9
$PUCSORGBACK
 10
0.0
 20
0.0
 30
0.0
  9
$USERI1
 70
     0
  9
$USERI2
 70
     0
  9
$USERI3
 70
     0
  9
$USERI4
 70
     0
  9
$USERI5
 70
     0
  9
$USERR1
 40
0.0
  9
$USERR2
 40
0.0
  9
$USERR3
 40
0.0
  9
$USERR4
 40
0.0
  9
$USERR5
 40
0.0
  9
$WORLDVIEW
 70
     1
  9
$SHADEDGE
 70
     3
  9
$SHADEDIF
 70
    70
  9
$TILEMODE
 70
     1
  9
$MAXACTVP
 70
    64
  9
$PINSBASE
 10
0.0
 20
0.0
 30
0.0
  9
$PLIMCHECK
 70
     0
  9
$PEXTMIN
 10
1.0000000000E+20
 20
1.0000000000E+20
 30
1.0000000000E+20
  9
$PEXTMAX
 10
-1.0000000000E+20
 20
-1.0000000000E+20
 30
-1.0000000000E+20
  9
$PLIMMIN
 10
0.0
 20
0.0
  9
$PLIMMAX
 10
420.0
 20
297.0
  9
$UNITMODE
 70
     0
  9
$VISRETAIN
 70
     1
  9
$PLINEGEN
 70
     0
  9
$PSLTSCALE
 70
     1
  9
$TREEDEPTH
 70
  3020
  9
$CMLSTYLE
  2
Standard
  9
$CMLJUST
 70
     0
  9
$CMLSCALE
 40
20.0
  9
$PROXYGRAPHICS
 70
     1
  9
$MEASUREMENT
 70
     1
  9
$CELWEIGHT
370
    -1
  9
$ENDCAPS
280
     0
  9
$JOINSTYLE
280
     0
  9
$LWDISPLAY
290
     1
  9
$INSUNITS
 70
     4
  9
$HYPERLINKBASE
  1

  9
$STYLESHEET
  1

  9
$XEDIT
290
     1
  9
$CEPSNTYPE
380
     0
  9
$PSTYLEMODE
290
     1
  9
$FINGERPRINTGUID
  2
{9d1222bd-1734-41f5-94b6-45e1c72435b5}
  9
$VERSIONGUID
  2
{FAEB1C32-E019-11D5-929B-00C0DF256EC4}
  9
$EXTNAMES
290
     1
  9
$PSVPSCALE
 40
0.0
  9
$OLESTARTUP
290
     0
  0
ENDSEC
  0
SECTION
  2
CLASSES
  0
CLASS
  1
ACDBDICTIONARYWDFLT
  2
AcDbDictionaryWithDefault
  3
ObjectDBX Classes
 90
        0
280
     0
281
     0
  0
CLASS
  1
VISUALSTYLE
  2
AcDbVisualStyle
  3
ObjectDBX Classes
 90
     4095
280
     0
281
     0
  0
CLASS
  1
MATERIAL
  2
AcDbMaterial
  3
ObjectDBX Classes
 90
     1153
280
     0
281
     0
  0
CLASS
  1
SCALE
  2
AcDbScale
  3
ObjectDBX Classes
 90
     1153
280
     0
281
     0
  0
CLASS
  1
TABLESTYLE
  2
AcDbTableStyle
  3
ObjectDBX Classes
 90
     4095
280
     0
281
     0
  0
CLASS
  1
MLEADERSTYLE
  2
AcDbMLeaderStyle
  3
ACDB_MLEADERSTYLE_CLASS
 90
     4095
280
     0
281
     0
  0
CLASS
  1
SUN
  2
AcDbSun
  3
SCENEOE
 90
     1153
280
     0
281
     0
  0
CLASS
  1
ACDBPLACEHOLDER
  2
AcDbPlaceHolder
  3
ObjectDBX Classes
 90
        0
280
     0
281
     0
  0
CLASS
  1
LAYOUT
  2
AcDbLayout
  3
ObjectDBX Classes
 90
        0
280
     0
281
     0
  0
ENDSEC
  0
SECTION
  2
TABLES
  0
TABLE
  2
VPORT
  5
8
330
0
100
AcDbSymbolTable
 70
     1
  0
VPORT
  5
29
330
8
100
AcDbSymbolTableRecord
100
AcDbViewportTableRecord
  2
*Active
 70
     0
 10
0.0
 20
0.0
 11
1.0
 21
1.0
 12
139.7
 22
107.95
 13
0.0
 23
0.0
 14
10.0
 24
10.0
 15
10.0
 25
10.0
 16
0.0
 26
0.0
 36
1.0
 17
0.0
 27
0.0
 37
0.0
 40
215.9
 41
1.2941176471
 42
50.0
 43
0.0
 44
0.0
 50
0.0
 51
0.0
 71
     0
 72
  2000
 73
     1
 74
     3
 75
     0
 76
     0
 77
     0
 78
     0
281
     0
 65
     1
110
0.0
120
0.0
130
0.0
111
1.0
121
0.0
131
0.0
112
0.0
122
1.0
132
0.0
 79
     0
146
0.0
  0
ENDTAB
  0
TABLE
  2
LTYPE
  5
5
330
0
100
AcDbSymbolTable
 70
     6
  0
LTYPE
  5
14
330
5
100
AcDbSymbolTableRecord
100
AcDbLinetypeTableRecord
  2
ByBlock
 70
     0
  3

 72
    65
 73
     0
 40
0.0
  0
LTYPE
  5
15
330
5
100
AcDbSymbolTableRecord
100
AcDbLinetypeTableRecord
  2
ByLayer
 70
     0
  3

 72
    65
 73
     0
 40
0.0
  0
LTYPE
  5
16
330
5
100
AcDbSymbolTableRecord
100
AcDbLinetypeTableRecord
  2
Continuous
 70
     0
  3
Solid line
 72
    65
 73
     0
 40
0.0
  0
LTYPE
  5
6E
330
5
100
AcDbSymbolTableRecord
100
AcDbLinetypeTableRecord
  2
HIDDEN
 70
     0
  3
Hidden __ __ __ __ __ __ __ __ __ __ __ __ __ __
 72
    65
 73
     2
 40
1.905
 49
1.27
 74
     0
 49
-0.635
 74
     0
  0
LTYPE
  5
6F
330
5
100
AcDbSymbolTableRecord
100
AcDbLinetypeTableRecord
  2
PHANTOM
 70
     0
  3
Phantom ______  __  __  ______  __  __  ______
 72
    65
 73
     6
 40
12.7
 49
6.35
 74
     0
 49
-1.27
 74
     0
 49
1.27
 74
     0
 49
-1.27
 74
     0
 49
1.27
 74
     0
 49
-1.27
 74
     0
  0
LTYPE
  5
70
330
5
100
AcDbSymbolTableRecord
100
AcDbLinetypeTableRecord
  2
CENTER
 70
     0
  3
Center ____ _ ____ _ ____ _ ____ _ ____ _ ____
 72
    65
 73
     4
 40
10.16
 49
6.35
 74
     0
 49
-1.27
 74
     0
 49
1.27
 74
     0
 49
-1.27
 74
     0
  0
LTYPE
  5
71
330
5
100
AcDbSymbolTableRecord
100
AcDbLinetypeTableRecord
  2
CENTERX2
 70
     0
  3
Center (2x) ________  __  ________  __  _____
 72
    65
 73
     4
 40
20.32
 49
12.7
 74
     0
 49
-2.54
 74
     0
 49
2.54
 74
     0
 49
-2.54
 74
     0
  0
LTYPE
  5
72
330
5
100
AcDbSymbolTableRecord
100
AcDbLinetypeTableRecord
  2
DOT2
 70
     0
  3
Dot (.5x) ........................................
 72
    65
 73
     2
 40
0.635
 49
0.0
 74
     0
 49
-0.635
 74
     0
  0
ENDTAB
  0
TABLE
  2
LAYER
  5
2
330
0
100
AcDbSymbolTable
 70
    17
  0
LAYER
  5
10
330
2
100
AcDbSymbolTableRecord
100
AcDbLayerTableRecord
  2
0
 70
     0
 62
     7
  6
Continuous
370
    -3
390
F
  0
LAYER
  5
73
330
2
100
AcDbSymbolTableRecord
100
AcDbLayerTableRecord
  2
FORMAT
 70
     0
 62
     7
  6
Continuous
370
    -3
390
F
  0
LAYER
  5
74
330
2
100
AcDbSymbolTableRecord
100
AcDbLayerTableRecord
  2
YARDIMCI_GEOMETRI
 70
     0
 62
    -6
  6
Continuous
290
     0
370
    -3
390
F
  0
LAYER
  5
75
330
2
100
AcDbSymbolTableRecord
100
AcDbLayerTableRecord
  2
SAYFA_CERCEVESI
 70
     0
 62
     7
  6
Continuous
370
    25
390
F
  0
LAYER
  5
76
330
2
100
AcDbSymbolTableRecord
100
AcDbLayerTableRecord
  2
ANTET
 70
     0
 62
     7
  6
Continuous
370
    -3
390
F
  0
LAYER
  5
77
330
2
100
AcDbSymbolTableRecord
100
AcDbLayerTableRecord
  2
OLCU
 70
     0
 62
   150
  6
Continuous
370
    -3
390
F
  0
LAYER
  5
78
330
2
100
AcDbSymbolTableRecord
100
AcDbLayerTableRecord
  2
METIN
 70
     0
 62
    96
  6
Continuous
370
    -3
390
F
  0
LAYER
  5
79
330
2
100
AcDbSymbolTableRecord
100
AcDbLayerTableRecord
  2
BALON
 70
     0
 62
     5
  6
Continuous
370
    -3
390
F
  0
LAYER
  5
7A
330
2
100
AcDbSymbolTableRecord
100
AcDbLayerTableRecord
  2
VURGU
 70
     0
 62
     7
  6
Continuous
370
    -3
390
F
  0
LAYER
  5
7B
330
2
100
AcDbSymbolTableRecord
100
AcDbLayerTableRecord
  2
SILIK
 70
     0
 62
     7
  6
Continuous
370
    -3
390
F
  0
LAYER
  5
7C
330
2
100
AcDbSymbolTableRecord
100
AcDbLayerTableRecord
  2
MODEL
 70
     0
 62
     7
  6
Continuous
370
    -3
390
F
  0
LAYER
  5
7D
330
2
100
AcDbSymbolTableRecord
100
AcDbLayerTableRecord
  2
DETAYLANDıRMA
 70
     0
 62
   190
  6
Continuous
370
    -3
390
F
  0
LAYER
  5
7E
330
2
100
AcDbSymbolTableRecord
100
AcDbLayerTableRecord
  2
TOLERANS
 70
     0
 62
   230
  6
Continuous
370
    -3
390
F
  0
LAYER
  5
7F
330
2
100
AcDbSymbolTableRecord
100
AcDbLayerTableRecord
  2
MERKEZ_CIZGILERI
 70
     0
 62
    30
  6
Continuous
370
    -3
390
F
  0
LAYER
  5
80
330
2
100
AcDbSymbolTableRecord
100
AcDbLayerTableRecord
  2
KESIT-DETAY_CIZGILERI
 70
     0
 62
     7
  6
Continuous
370
    -3
390
F
  0
LAYER
  5
81
330
2
100
AcDbSymbolTableRecord
100
AcDbLayerTableRecord
  2
\U+041E\U+0421\U+0415\U+0412\U+042B\U+0415
 70
     0
 62
     7
  6
Continuous
370
    -3
390
F
  0
LAYER
  5
82
330
2
100
AcDbSymbolTableRecord
100
AcDbLayerTableRecord
  2
\U+0412\U+041E\U+0414\U+042F\U+041D\U+042B\U+0415_\U+0417\U+041D\U+0410\U+041A\U+0418
 70
     0
 62
    11
  6
Continuous
370
    -3
390
F
  0
ENDTAB
  0
TABLE
  2
STYLE
  5
3
330
0
100
AcDbSymbolTable
 70
     1
  0
STYLE
  5
11
330
3
100
AcDbSymbolTableRecord
100
AcDbTextStyleTableRecord
  2
Standard
 70
     0
 40
0.0
 41
1.0
 50
0.0
 71
     0
 42
3.5
  3
txt
  4

  0
ENDTAB
  0
TABLE
  2
VIEW
  5
6
330
0
100
AcDbSymbolTable
 70
     0
  0
ENDTAB
  0
TABLE
  2
UCS
  5
7
330
0
100
AcDbSymbolTable
 70
     0
  0
ENDTAB
  0
TABLE
  2
APPID
  5
9
330
0
100
AcDbSymbolTable
 70
     1
  0
APPID
  5
12
330
9
100
AcDbSymbolTableRecord
100
AcDbRegAppTableRecord
  2
ACAD
 70
     0
  0
ENDTAB
  0
TABLE
  2
DIMSTYLE
  5
A
330
0
100
AcDbSymbolTable
 70
     1
100
AcDbDimStyleTable
  0
DIMSTYLE
105
27
330
A
100
AcDbSymbolTableRecord
100
AcDbDimStyleTableRecord
  2
ISO-25
 70
     0
 41
2.5
 42
0.625
 43
3.75
 44
1.25
 73
     0
 74
     0
 77
     1
 78
     8
140
2.5
141
2.5
143
0.0393700787
147
0.625
171
     3
172
     1
178
     0
271
     2
272
     2
274
     3
278
    44
283
     0
284
     8
340
11
  0
ENDTAB
  0
TABLE
  2
BLOCK_RECORD
  5
1
330
0
100
AcDbSymbolTable
 70
     2
  0
BLOCK_RECORD
  5
1F
330
1
100
AcDbSymbolTableRecord
100
AcDbBlockTableRecord
  2
*Model_Space
340
22
  0
BLOCK_RECORD
  5
1B
330
1
100
AcDbSymbolTableRecord
100
AcDbBlockTableRecord
  2
*Paper_Space
340
1E
  0
BLOCK_RECORD
  5
23
330
1
100
AcDbSymbolTableRecord
100
AcDbBlockTableRecord
  2
*Paper_Space0
340
26
  0
BLOCK_RECORD
  5
88
330
1
100
AcDbSymbolTableRecord
100
AcDbBlockTableRecord
  2
SW_CENTERMARKSYMBOL_0
340
0
102
{BLKREFS
331
93
102
}
  0
ENDTAB
  0
ENDSEC
  0
SECTION
  2
BLOCKS
  0
BLOCK
  5
20
330
1F
100
AcDbEntity
  8
0
100
AcDbBlockBegin
  2
*Model_Space
 70
     0
 10
0.0
 20
0.0
 30
0.0
  3
*Model_Space
  1

  0
ENDBLK
  5
21
330
1F
100
AcDbEntity
  8
0
100
AcDbBlockEnd
  0
BLOCK
  5
1C
330
1B
100
AcDbEntity
 67
     1
  8
0
100
AcDbBlockBegin
  2
*Paper_Space
 70
     0
 10
0.0
 20
0.0
 30
0.0
  3
*Paper_Space
  1

  0
ENDBLK
  5
1D
330
1B
100
AcDbEntity
 67
     1
  8
0
100
AcDbBlockEnd
  0
BLOCK
  5
24
330
23
100
AcDbEntity
  8
0
100
AcDbBlockBegin
  2
*Paper_Space0
 70
     0
 10
0.0
 20
0.0
 30
0.0
  3
*Paper_Space0
  1

  0
ENDBLK
  5
25
330
23
100
AcDbEntity
  8
0
100
AcDbBlockEnd
  0
BLOCK
  5
89
330
88
100
AcDbEntity
  8
0
100
AcDbBlockBegin
  2
SW_CENTERMARKSYMBOL_0
 70
     0
 10
0.0
 20
0.0
 30
0.0
  3
SW_CENTERMARKSYMBOL_0
  1

  0
LINE
  5
8B
330
88
100
AcDbEntity
  8
FORMAT
 62
     0
100
AcDbLine
 10
0.0
 20
0.0
 30
0.0
 11
0.0
 21
2.5
 31
0.0
  0
LINE
  5
8C
330
88
100
AcDbEntity
  8
FORMAT
 62
     0
100
AcDbLine
 10
0.0
 20
0.0
 30
0.0
 11
-2.5
 21
0.0
 31
0.0
  0
LINE
  5
8D
330
88
100
AcDbEntity
  8
FORMAT
 62
     0
100
AcDbLine
 10
0.0
 20
0.0
 30
0.0
 11
0.0
 21
-2.5
 31
0.0
  0
LINE
  5
8E
330
88
100
AcDbEntity
  8
FORMAT
 62
     0
100
AcDbLine
 10
0.0
 20
0.0
 30
0.0
 11
2.5
 21
0.0
 31
0.0
  0
LINE
  5
8F
330
88
100
AcDbEntity
  8
FORMAT
 62
     0
100
AcDbLine
 10
0.0
 20
5.0
 30
0.0
 11
0.0
 21
160.0
 31
0.0
  0
LINE
  5
90
330
88
100
AcDbEntity
  8
FORMAT
 62
     0
100
AcDbLine
 10
-5.0
 20
0.0
 30
0.0
 11
-160.0
 21
0.0
 31
0.0
  0
LINE
  5
91
330
88
100
AcDbEntity
  8
FORMAT
 62
     0
100
AcDbLine
 10
0.0
 20
-5.0
 30
0.0
 11
0.0
 21
-160.0
 31
0.0
  0
LINE
  5
92
330
88
100
AcDbEntity
  8
FORMAT
 62
     0
100
AcDbLine
 10
5.0
 20
0.0
 30
0.0
 11
160.0
 21
0.0
 31
0.0
  0
ENDBLK
  5
8A
330
88
100
AcDbEntity
  8
0
100
AcDbBlockEnd
  0
ENDSEC
  0
SECTION
  2
ENTITIES
  0
CIRCLE
  5
83
330
1F
100
AcDbEntity
  8
0
  6
Continuous
 62
     7
370
    25
100
AcDbCircle
 10
136.3914362981
 20
115.8905528846
 30
0.0
 40
92.0
  0
CIRCLE
  5
84
330
1F
100
AcDbEntity
  8
0
  6
Continuous
 62
     7
370
    25
100
AcDbCircle
 10
136.3914362981
 20
115.8905528846
 30
0.0
 40
112.5
  0
CIRCLE
  5
85
330
1F
100
AcDbEntity
  8
0
  6
Continuous
 62
     7
370
    25
100
AcDbCircle
 10
136.3914362981
 20
115.8905528846
 30
0.0
 40
125.0
  0
CIRCLE
  5
86
330
1F
100
AcDbEntity
  8
0
  6
Continuous
 62
     7
370
    25
100
AcDbCircle
 10
136.3914362981
 20
115.8905528846
 30
0.0
 40
140.0
  0
CIRCLE
  5
87
330
1F
100
AcDbEntity
  8
0
  6
Continuous
 62
     7
370
    25
100
AcDbCircle
 10
136.3914362981
 20
115.8905528846
 30
0.0
 40
157.5
  0
INSERT
  5
93
330
1F
100
AcDbEntity
  8
FORMAT
 62
     7
100
AcDbBlockReference
  2
SW_CENTERMARKSYMBOL_0
 10
136.3914362981
 20
115.8905528846
 30
0.0
  0
LINE
  5
94
330
1F
100
AcDbEntity
  8
0
  6
Continuous
 62
     7
370
    25
100
AcDbLine
 10
422.603907185
 20
-41.6094471154
 30
0.0
 11
458.603907185
 21
-41.6094471154
 31
0.0
  0
LINE
  5
95
330
1F
100
AcDbEntity
  8
0
  6
Continuous
 62
     7
370
    25
100
AcDbLine
 10
458.603907185
 20
273.3905528846
 30
0.0
 11
422.603907185
 21
273.3905528846
 31
0.0
  0
LINE
  5
96
330
1F
100
AcDbEntity
  8
0
  6
Continuous
 62
     7
370
    25
100
AcDbLine
 10
458.603907185
 20
-41.6094471154
 30
0.0
 11
469.103907185
 21
-24.1094471154
 31
0.0
  0
LINE
  5
97
330
1F
100
AcDbEntity
  8
0
  6
Continuous
 62
     7
370
    25
100
AcDbLine
 10
469.103907185
 20
255.8905528846
 30
0.0
 11
458.603907185
 21
273.3905528846
 31
0.0
  0
LINE
  5
98
330
1F
100
AcDbEntity
  8
0
  6
Continuous
 62
     7
370
    25
100
AcDbLine
 10
469.103907185
 20
-24.1094471154
 30
0.0
 11
505.103907185
 21
-24.1094471154
 31
0.0
  0
LINE
  5
99
330
1F
100
AcDbEntity
  8
0
  6
Continuous
 62
     7
370
    25
100
AcDbLine
 10
505.103907185
 20
255.8905528846
 30
0.0
 11
469.103907185
 21
255.8905528846
 31
0.0
  0
LINE
  5
9A
330
1F
100
AcDbEntity
  8
0
  6
Continuous
 62
     7
370
    25
100
AcDbLine
 10
505.103907185
 20
-24.1094471154
 30
0.0
 11
514.103907185
 21
-9.1094471154
 31
0.0
  0
LINE
  5
9B
330
1F
100
AcDbEntity
  8
0
  6
Continuous
 62
     7
370
    25
100
AcDbLine
 10
514.103907185
 20
240.8905528846
 30
0.0
 11
505.103907185
 21
255.8905528846
 31
0.0
  0
LINE
  5
9C
330
1F
100
AcDbEntity
  8
0
  6
Continuous
 62
     7
370
    25
100
AcDbLine
 10
514.103907185
 20
-9.1094471154
 30
0.0
 11
550.103907185
 21
-9.1094471154
 31
0.0
  0
LINE
  5
9D
330
1F
100
AcDbEntity
  8
0
  6
Continuous
 62
     7
370
    25
100
AcDbLine
 10
550.103907185
 20
240.8905528846
 30
0.0
 11
514.103907185
 21
240.8905528846
 31
0.0
  0
LINE
  5
9E
330
1F
100
AcDbEntity
  8
0
  6
Continuous
 62
     7
370
    25
100
AcDbLine
 10
550.103907185
 20
-9.1094471154
 30
0.0
 11
557.603907185
 21
3.3905528846
 31
0.0
  0
LINE
  5
9F
330
1F
100
AcDbEntity
  8
0
  6
Continuous
 62
     7
370
    25
100
AcDbLine
 10
557.603907185
 20
228.3905528846
 30
0.0
 11
550.103907185
 21
240.8905528846
 31
0.0
  0
LINE
  5
A0
330
1F
100
AcDbEntity
  8
0
  6
Continuous
 62
     7
370
    25
100
AcDbLine
 10
557.603907185
 20
3.3905528846
 30
0.0
 11
593.603907185
 21
3.3905528846
 31
0.0
  0
LINE
  5
A1
330
1F
100
AcDbEntity
  8
0
  6
Continuous
 62
     7
370
    25
100
AcDbLine
 10
593.603907185
 20
228.3905528846
 30
0.0
 11
557.603907185
 21
228.3905528846
 31
0.0
  0
LINE
  5
A2
330
1F
100
AcDbEntity
  8
0
  6
Continuous
 62
     7
370
    25
100
AcDbLine
 10
458.603907185
 20
115.8905528846
 30
0.0
 11
458.603907185
 21
273.3905528846
 31
0.0
  0
LINE
  5
A3
330
1F
100
AcDbEntity
  8
0
  6
Continuous
 62
     7
370
    25
100
AcDbLine
 10
458.603907185
 20
-41.6094471154
 30
0.0
 11
458.603907185
 21
115.8905528846
 31
0.0
  0
LINE
  5
A4
330
1F
100
AcDbEntity
  8
0
  6
Continuous
 62
     7
370
    25
100
AcDbLine
 10
422.603907185
 20
115.8905528846
 30
0.0
 11
422.603907185
 21
273.3905528846
 31
0.0
  0
LINE
  5
A5
330
1F
100
AcDbEntity
  8
0
  6
Continuous
 62
     7
370
    25
100
AcDbLine
 10
422.603907185
 20
-41.6094471154
 30
0.0
 11
422.603907185
 21
115.8905528846
 31
0.0
  0
LINE
  5
A6
330
1F
100
AcDbEntity
  8
0
  6
Continuous
 62
     7
370
    25
100
AcDbLine
 10
469.103907185
 20
115.8905528846
 30
0.0
 11
469.103907185
 21
255.8905528846
 31
0.0
  0
LINE
  5
A7
330
1F
100
AcDbEntity
  8
0
  6
Continuous
 62
     7
370
    25
100
AcDbLine
 10
469.103907185
 20
-24.1094471154
 30
0.0
 11
469.103907185
 21
115.8905528846
 31
0.0
  0
LINE
  5
A8
330
1F
100
AcDbEntity
  8
0
  6
Continuous
 62
     7
370
    25
100
AcDbLine
 10
505.103907185
 20
115.8905528846
 30
0.0
 11
505.103907185
 21
255.8905528846
 31
0.0
  0
LINE
  5
A9
330
1F
100
AcDbEntity
  8
0
  6
Continuous
 62
     7
370
    25
100
AcDbLine
 10
505.103907185
 20
-24.1094471154
 30
0.0
 11
505.103907185
 21
115.8905528846
 31
0.0
  0
LINE
  5
AA
330
1F
100
AcDbEntity
  8
0
  6
Continuous
 62
     7
370
    25
100
AcDbLine
 10
514.103907185
 20
115.8905528846
 30
0.0
 11
514.103907185
 21
240.8905528846
 31
0.0
  0
LINE
  5
AB
330
1F
100
AcDbEntity
  8
0
  6
Continuous
 62
     7
370
    25
100
AcDbLine
 10
514.103907185
 20
-9.1094471154
 30
0.0
 11
514.103907185
 21
115.8905528846
 31
0.0
  0
LINE
  5
AC
330
1F
100
AcDbEntity
  8
0
  6
Continuous
 62
     7
370
    25
100
AcDbLine
 10
550.103907185
 20
115.8905528846
 30
0.0
 11
550.103907185
 21
240.8905528846
 31
0.0
  0
LINE
  5
AD
330
1F
100
AcDbEntity
  8
0
  6
Continuous
 62
     7
370
    25
100
AcDbLine
 10
550.103907185
 20
-9.1094471154
 30
0.0
 11
550.103907185
 21
115.8905528846
 31
0.0
  0
LINE
  5
AE
330
1F
100
AcDbEntity
  8
0
  6
Continuous
 62
     7
370
    25
100
AcDbLine
 10
557.603907185
 20
115.8905528846
 30
0.0
 11
557.603907185
 21
228.3905528846
 31
0.0
  0
LINE
  5
AF
330
1F
100
AcDbEntity
  8
0
  6
Continuous
 62
     7
370
    25
100
AcDbLine
 10
557.603907185
 20
3.3905528846
 30
0.0
 11
557.603907185
 21
115.8905528846
 31
0.0
  0
LINE
  5
B0
330
1F
100
AcDbEntity
  8
0
  6
Continuous
 62
     7
370
    25
100
AcDbLine
 10
593.603907185
 20
115.8905528846
 30
0.0
 11
593.603907185
 21
228.3905528846
 31
0.0
  0
LINE
  5
B1
330
1F
100
AcDbEntity
  8
0
  6
Continuous
 62
     7
370
    25
100
AcDbLine
 10
593.603907185
 20
3.3905528846
 30
0.0
 11
593.603907185
 21
115.8905528846
 31
0.0
  0
LINE
  5
B2
330
1F
100
AcDbEntity
  8
0
  6
Continuous
 62
     7
370
    25
100
AcDbLine
 10
-162.6838158172
 20
273.3905528846
 30
0.0
 11
-198.6838158172
 21
273.3905528846
 31
0.0
  0
LINE
  5
B3
330
1F
100
AcDbEntity
  8
0
  6
Continuous
 62
     7
370
    25
100
AcDbLine
 10
-198.6838158172
 20
-41.6094471154
 30
0.0
 11
-162.6838158172
 21
-41.6094471154
 31
0.0
  0
LINE
  5
B4
330
1F
100
AcDbEntity
  8
0
  6
Continuous
 62
     7
370
    25
100
AcDbLine
 10
-198.6838158172
 20
273.3905528846
 30
0.0
 11
-209.1838158172
 21
255.8905528846
 31
0.0
  0
LINE
  5
B5
330
1F
100
AcDbEntity
  8
0
  6
Continuous
 62
     7
370
    25
100
AcDbLine
 10
-209.1838158172
 20
-24.1094471154
 30
0.0
 11
-198.6838158172
 21
-41.6094471154
 31
0.0
  0
LINE
  5
B6
330
1F
100
AcDbEntity
  8
0
  6
Continuous
 62
     7
370
    25
100
AcDbLine
 10
-209.1838158172
 20
255.8905528846
 30
0.0
 11
-245.1838158172
 21
255.8905528846
 31
0.0
  0
LINE
  5
B7
330
1F
100
AcDbEntity
  8
0
  6
Continuous
 62
     7
370
    25
100
AcDbLine
 10
-245.1838158172
 20
-24.1094471154
 30
0.0
 11
-209.1838158172
 21
-24.1094471154
 31
0.0
  0
LINE
  5
B8
330
1F
100
AcDbEntity
  8
0
  6
Continuous
 62
     7
370
    25
100
AcDbLine
 10
-245.1838158172
 20
255.8905528846
 30
0.0
 11
-254.1838158172
 21
240.8905528846
 31
0.0
  0
LINE
  5
B9
330
1F
100
AcDbEntity
  8
0
  6
Continuous
 62
     7
370
    25
100
AcDbLine
 10
-254.1838158172
 20
-9.1094471154
 30
0.0
 11
-245.1838158172
 21
-24.1094471154
 31
0.0
  0
LINE
  5
BA
330
1F
100
AcDbEntity
  8
0
  6
Continuous
 62
     7
370
    25
100
AcDbLine
 10
-254.1838158172
 20
240.8905528846
 30
0.0
 11
-290.1838158172
 21
240.8905528846
 31
0.0
  0
LINE
  5
BB
330
1F
100
AcDbEntity
  8
0
  6
Continuous
 62
     7
370
    25
100
AcDbLine
 10
-290.1838158172
 20
-9.1094471154
 30
0.0
 11
-254.1838158172
 21
-9.1094471154
 31
0.0
  0
LINE
  5
BC
330
1F
100
AcDbEntity
  8
0
  6
Continuous
 62
     7
370
    25
100
AcDbLine
 10
-290.1838158172
 20
240.8905528846
 30
0.0
 11
-297.6838158172
 21
228.3905528846
 31
0.0
  0
LINE
  5
BD
330
1F
100
AcDbEntity
  8
0
  6
Continuous
 62
     7
370
    25
100
AcDbLine
 10
-297.6838158172
 20
3.3905528846
 30
0.0
 11
-290.1838158172
 21
-9.1094471154
 31
0.0
  0
LINE
  5
BE
330
1F
100
AcDbEntity
  8
0
  6
Continuous
 62
     7
370
    25
100
AcDbLine
 10
-297.6838158172
 20
228.3905528846
 30
0.0
 11
-333.6838158172
 21
228.3905528846
 31
0.0
  0
LINE
  5
BF
330
1F
100
AcDbEntity
  8
0
  6
Continuous
 62
     7
370
    25
100
AcDbLine
 10
-333.6838158172
 20
3.3905528846
 30
0.0
 11
-297.6838158172
 21
3.3905528846
 31
0.0
  0
LINE
  5
C0
330
1F
100
AcDbEntity
  8
0
  6
Continuous
 62
     7
370
    25
100
AcDbLine
 10
-198.6838158172
 20
273.3905528846
 30
0.0
 11
-198.6838158172
 21
-41.6094471154
 31
0.0
  0
LINE
  5
C1
330
1F
100
AcDbEntity
  8
0
  6
Continuous
 62
     7
370
    25
100
AcDbLine
 10
-162.6838158172
 20
273.3905528846
 30
0.0
 11
-162.6838158172
 21
-41.6094471154
 31
0.0
  0
LINE
  5
C2
330
1F
100
AcDbEntity
  8
0
  6
Continuous
 62
     7
370
    25
100
AcDbLine
 10
-209.1838158172
 20
255.8905528846
 30
0.0
 11
-209.1838158172
 21
-24.1094471154
 31
0.0
  0
LINE
  5
C3
330
1F
100
AcDbEntity
  8
0
  6
Continuous
 62
     7
370
    25
100
AcDbLine
 10
-245.1838158172
 20
255.8905528846
 30
0.0
 11
-245.1838158172
 21
-24.1094471154
 31
0.0
  0
LINE
  5
C4
330
1F
100
AcDbEntity
  8
0
  6
Continuous
 62
     7
370
    25
100
AcDbLine
 10
-254.1838158172
 20
240.8905528846
 30
0.0
 11
-254.1838158172
 21
-9.1094471154
 31
0.0
  0
LINE
  5
C5
330
1F
100
AcDbEntity
  8
0
  6
Continuous
 62
     7
370
    25
100
AcDbLine
 10
-290.1838158172
 20
240.8905528846
 30
0.0
 11
-290.1838158172
 21
-9.1094471154
 31
0.0
  0
LINE
  5
C6
330
1F
100
AcDbEntity
  8
0
  6
Continuous
 62
     7
370
    25
100
AcDbLine
 10
-297.6838158172
 20
228.3905528846
 30
0.0
 11
-297.6838158172
 21
3.3905528846
 31
0.0
  0
LINE
  5
C7
330
1F
100
AcDbEntity
  8
0
  6
Continuous
 62
     7
370
    25
100
AcDbLine
 10
-333.6838158172
 20
228.3905528846
 30
0.0
 11
-333.6838158172
 21
3.3905528846
 31
0.0
  0
LINE
  5
C8
330
1F
100
AcDbEntity
  8
0
  6
Continuous
 62
     7
370
    25
100
AcDbLine
 10
293.8914362981
 20
396.3852160648
 30
0.0
 11
293.8914362981
 21
432.3852160648
 31
0.0
  0
LINE
  5
C9
330
1F
100
AcDbEntity
  8
0
  6
Continuous
 62
     7
370
    25
100
AcDbLine
 10
-21.1085637019
 20
432.3852160648
 30
0.0
 11
-21.1085637019
 21
396.3852160648
 31
0.0
  0
LINE
  5
CA
330
1F
100
AcDbEntity
  8
0
  6
Continuous
 62
     7
370
    25
100
AcDbLine
 10
293.8914362981
 20
432.3852160648
 30
0.0
 11
276.3914362981
 21
442.8852160648
 31
0.0
  0
LINE
  5
CB
330
1F
100
AcDbEntity
  8
0
  6
Continuous
 62
     7
370
    25
100
AcDbLine
 10
-3.6085637019
 20
442.8852160648
 30
0.0
 11
-21.1085637019
 21
432.3852160648
 31
0.0
  0
LINE
  5
CC
330
1F
100
AcDbEntity
  8
0
  6
Continuous
 62
     7
370
    25
100
AcDbLine
 10
276.3914362981
 20
442.8852160648
 30
0.0
 11
276.3914362981
 21
478.8852160648
 31
0.0
  0
LINE
  5
CD
330
1F
100
AcDbEntity
  8
0
  6
Continuous
 62
     7
370
    25
100
AcDbLine
 10
-3.6085637019
 20
478.8852160648
 30
0.0
 11
-3.6085637019
 21
442.8852160648
 31
0.0
  0
LINE
  5
CE
330
1F
100
AcDbEntity
  8
0
  6
Continuous
 62
     7
370
    25
100
AcDbLine
 10
276.3914362981
 20
478.8852160648
 30
0.0
 11
261.3914362981
 21
487.8852160648
 31
0.0
  0
LINE
  5
CF
330
1F
100
AcDbEntity
  8
0
  6
Continuous
 62
     7
370
    25
100
AcDbLine
 10
11.3914362981
 20
487.8852160648
 30
0.0
 11
-3.6085637019
 21
478.8852160648
 31
0.0
  0
LINE
  5
D0
330
1F
100
AcDbEntity
  8
0
  6
Continuous
 62
     7
370
    25
100
AcDbLine
 10
261.3914362981
 20
487.8852160648
 30
0.0
 11
261.3914362981
 21
523.8852160648
 31
0.0
  0
LINE
  5
D1
330
1F
100
AcDbEntity
  8
0
  6
Continuous
 62
     7
370
    25
100
AcDbLine
 10
11.3914362981
 20
523.8852160648
 30
0.0
 11
11.3914362981
 21
487.8852160648
 31
0.0
  0
LINE
  5
D2
330
1F
100
AcDbEntity
  8
0
  6
Continuous
 62
     7
370
    25
100
AcDbLine
 10
261.3914362981
 20
523.8852160648
 30
0.0
 11
248.8914362981
 21
531.3852160648
 31
0.0
  0
LINE
  5
D3
330
1F
100
AcDbEntity
  8
0
  6
Continuous
 62
     7
370
    25
100
AcDbLine
 10
23.8914362981
 20
531.3852160648
 30
0.0
 11
11.3914362981
 21
523.8852160648
 31
0.0
  0
LINE
  5
D4
330
1F
100
AcDbEntity
  8
0
  6
Continuous
 62
     7
370
    25
100
AcDbLine
 10
248.8914362981
 20
531.3852160648
 30
0.0
 11
248.8914362981
 21
567.3852160648
 31
0.0
  0
LINE
  5
D5
330
1F
100
AcDbEntity
  8
0
  6
Continuous
 62
     7
370
    25
100
AcDbLine
 10
23.8914362981
 20
567.3852160648
 30
0.0
 11
23.8914362981
 21
531.3852160648
 31
0.0
  0
LINE
  5
D6
330
1F
100
AcDbEntity
  8
0
  6
Continuous
 62
     7
370
    25
100
AcDbLine
 10
293.8914362981
 20
432.3852160648
 30
0.0
 11
-21.1085637019
 21
432.3852160648
 31
0.0
  0
LINE
  5
D7
330
1F
100
AcDbEntity
  8
0
  6
Continuous
 62
     7
370
    25
100
AcDbLine
 10
293.8914362981
 20
396.3852160648
 30
0.0
 11
-21.1085637019
 21
396.3852160648
 31
0.0
  0
LINE
  5
D8
330
1F
100
AcDbEntity
  8
0
  6
Continuous
 62
     7
370
    25
100
AcDbLine
 10
276.3914362981
 20
442.8852160648
 30
0.0
 11
-3.6085637019
 21
442.8852160648
 31
0.0
  0
LINE
  5
D9
330
1F
100
AcDbEntity
  8
0
  6
Continuous
 62
     7
370
    25
100
AcDbLine
 10
276.3914362981
 20
478.8852160648
 30
0.0
 11
-3.6085637019
 21
478.8852160648
 31
0.0
  0
LINE
  5
DA
330
1F
100
AcDbEntity
  8
0
  6
Continuous
 62
     7
370
    25
100
AcDbLine
 10
261.3914362981
 20
487.8852160648
 30
0.0
 11
11.3914362981
 21
487.8852160648
 31
0.0
  0
LINE
  5
DB
330
1F
100
AcDbEntity
  8
0
  6
Continuous
 62
     7
370
    25
100
AcDbLine
 10
261.3914362981
 20
523.8852160648
 30
0.0
 11
11.3914362981
 21
523.8852160648
 31
0.0
  0
LINE
  5
DC
330
1F
100
AcDbEntity
  8
0
  6
Continuous
 62
     7
370
    25
100
AcDbLine
 10
248.8914362981
 20
531.3852160648
 30
0.0
 11
23.8914362981
 21
531.3852160648
 31
0.0
  0
LINE
  5
DD
330
1F
100
AcDbEntity
  8
0
  6
Continuous
 62
     7
370
    25
100
AcDbLine
 10
248.8914362981
 20
567.3852160648
 30
0.0
 11
23.8914362981
 21
567.3852160648
 31
0.0
  0
LINE
  5
DE
330
1F
100
AcDbEntity
  8
0
  6
Continuous
 62
     7
370
    25
100
AcDbLine
 10
522.6702776563
 20
-144.3888809674
 30
0.0
 11
497.2144335336
 21
-129.6935349546
 31
0.0
  0
LINE
  5
DF
330
1F
100
AcDbEntity
  8
0
  6
Continuous
 62
     7
370
    25
100
AcDbLine
 10
384.723576112
 20
-324.5545289903
 30
0.0
 11
410.1794202348
 21
-339.2498750031
 31
0.0
  0
LINE
  5
E0
330
1F
100
AcDbEntity
  8
0
  6
Continuous
 62
     7
370
    25
100
AcDbLine
 10
559.6789147169
 20
-151.3201466198
 30
0.0
 11
534.2230705942
 21
-136.624800607
 31
0.0
  0
LINE
  5
E1
330
1F
100
AcDbEntity
  8
0
  6
Continuous
 62
     7
370
    25
100
AcDbLine
 10
409.2332290147
 20
-353.1370162022
 30
0.0
 11
434.6890731374
 21
-367.832362215
 31
0.0
  0
LINE
  5
E2
330
1F
100
AcDbEntity
  8
0
  6
Continuous
 62
     7
370
    25
100
AcDbLine
 10
598.9981103651
 20
-156.6985962001
 30
0.0
 11
573.5422662424
 21
-142.0032501873
 31
0.0
  0
LINE
  5
E3
330
1F
100
AcDbEntity
  8
0
  6
Continuous
 62
     7
370
    25
100
AcDbLine
 10
433.5536436733
 20
-384.4969316539
 30
0.0
 11
459.009487796
 21
-399.1922776667
 31
0.0
  0
LINE
  5
E4
330
1F
100
AcDbEntity
  8
0
  6
Continuous
 62
     7
370
    25
100
AcDbLine
 10
640.6278646008
 20
-160.5242297084
 30
0.0
 11
615.1720204781
 21
-145.8288836955
 31
0.0
  0
LINE
  5
E5
330
1F
100
AcDbEntity
  8
0
  6
Continuous
 62
     7
370
    25
100
AcDbLine
 10
457.6848200879
 20
-418.6342753455
 30
0.0
 11
483.1406642106
 21
-433.3296213583
 31
0.0
  0
LWPOLYLINE
  5
E6
330
1F
100
AcDbEntity
  8
0
  6
Continuous
 62
     7
370
    25
100
AcDbPolyline
 90
      117
 70
   128
 43
0.0
 10
361.4194919393
 20
-273.0469882625
 10
361.5361581531
 20
-268.0063925992
 10
361.8858145922
 20
-262.8458819282
 10
362.4674356541
 20
-257.5805929164
 10
363.2793153441
 20
-252.2259695639
 10
364.319072279
 20
-246.7977179034
 10
365.5836566727
 20
-241.3117599323
 10
367.0693592813
 20
-235.7841869106
 10
368.771822283
 20
-230.2312121623
 10
370.6860520604
 20
-224.6691235192
 10
372.806433848
 20
-219.1142355455
 10
375.1267482004
 20
-213.5828416848
 10
377.640189236
 20
-208.0911664684
 10
380.3393845991
 20
-202.6553179258
 10
383.2164170847
 20
-197.2912403374
 10
386.2628478608
 20
-192.014667467
 10
389.469741221
 20
-186.841076412
 10
392.8276907945
 20
-181.7856422063
 10
396.3268471367
 20
-176.8631933094
 10
399.9569466192
 20
-172.0881681122
 10
403.7073415346
 20
-167.4745725863
 10
407.5670313286
 20
-163.0359392022
 10
411.5246948659
 20
-158.7852872364
 10
415.5687236376
 20
-154.7350845836
 10
419.6872558103
 20
-150.8972111859
 10
423.8682110197
 20
-147.2829241872
 10
428.0993258037
 20
-143.9028249142
 10
432.3681895738
 20
-140.7668277803
 10
436.6622810168
 20
-137.8841312054
 10
440.9690048228
 20
-135.2631906353
 10
445.2757286288
 20
-132.9116937403
 10
449.5698200719
 20
-130.8365378659
 10
453.8386838419
 20
-129.0438098018
 10
458.069798626
 20
-127.5387679283
 10
462.2507538353
 20
-126.3258267926
 10
466.3692860081
 20
-125.40854416
 10
470.4133147797
 20
-124.7896105785
 10
474.370978317
 20
-124.470841487
 10
478.230668111
 20
-124.45317189
 10
481.9810630265
 20
-124.7366536156
 10
485.6111625089
 20
-125.3204551631
 10
489.1103188511
 20
-126.2028641419
 10
492.4682684247
 20
-127.3812922944
 10
495.6751617848
 20
-128.8522830878
 10
498.7215925609
 20
-130.6115218527
 10
501.5986250465
 20
-132.6538484387
 10
504.2978204096
 20
-134.97327235
 10
506.8112614452
 20
-137.5629903167
 10
509.1315757977
 20
-140.4154062496
 10
511.2519575852
 20
-143.5221535216
 10
513.1661873627
 20
-146.8741195074
 10
514.8686503643
 20
-150.4614723134
 10
516.3543529729
 20
-154.2736896156
 10
517.6189373666
 20
-158.2995895239
 10
518.6586943016
 20
-162.5273633802
 10
519.4705739915
 20
-166.9446103954
 10
520.0521950534
 20
-171.5383740228
 10
520.4018514926
 20
-176.2951799623
 10
520.5185177063
 20
-181.2010756824
 10
520.4018514926
 20
-186.2416713458
 10
520.0521950534
 20
-191.4021820168
 10
519.4705739915
 20
-196.6674710285
 10
518.6586943016
 20
-202.0220943811
 10
517.6189373666
 20
-207.4503460416
 10
516.3543529729
 20
-212.9363040127
 10
514.8686503643
 20
-218.4638770344
 10
513.1661873627
 20
-224.0168517826
 10
511.2519575852
 20
-229.5789404258
 10
509.1315757977
 20
-235.1338283994
 10
506.8112614452
 20
-240.6652222601
 10
504.2978204096
 20
-246.1568974765
 10
501.5986250465
 20
-251.5927460191
 10
498.7215925609
 20
-256.9568236075
 10
495.6751617848
 20
-262.2333964779
 10
492.4682684247
 20
-267.4069875329
 10
489.1103188511
 20
-272.4624217387
 10
485.6111625089
 20
-277.3848706355
 10
481.9810630265
 20
-282.1598958327
 10
478.230668111
 20
-286.7734913586
 10
474.370978317
 20
-291.2121247427
 10
470.4133147797
 20
-295.4627767085
 10
466.3692860081
 20
-299.5129793614
 10
462.2507538353
 20
-303.3508527591
 10
458.069798626
 20
-306.9651397577
 10
453.8386838419
 20
-310.3452390307
 10
449.5698200719
 20
-313.4812361647
 10
445.2757286288
 20
-316.3639327395
 10
440.9690048228
 20
-318.9848733096
 10
436.6622810168
 20
-321.3363702046
 10
432.3681895738
 20
-323.4115260791
 10
428.0993258037
 20
-325.2042541431
 10
423.8682110197
 20
-326.7092960166
 10
419.6872558103
 20
-327.9222371523
 10
415.5687236375
 20
-328.8395197849
 10
411.5246948659
 20
-329.4584533664
 10
407.5670313286
 20
-329.777222458
 10
403.7073415346
 20
-329.7948920549
 10
399.9569466192
 20
-329.5114103293
 10
396.3268471367
 20
-328.9276087818
 10
392.8276907945
 20
-328.0451998031
 10
389.469741221
 20
-326.8667716505
 10
386.2628478608
 20
-325.3957808571
 10
383.2164170847
 20
-323.6365420922
 10
380.3393845991
 20
-321.5942155062
 10
377.640189236
 20
-319.2747915949
 10
375.1267482004
 20
-316.6850736283
 10
372.806433848
 20
-313.8326576953
 10
370.6860520604
 20
-310.7259104234
 10
368.771822283
 20
-307.3739444375
 10
367.0693592813
 20
-303.7865916316
 10
365.5836566727
 20
-299.9743743293
 10
364.319072279
 20
-295.948474421
 10
363.2793153441
 20
-291.7207005647
 10
362.4674356541
 20
-287.3034535495
 10
361.8858145922
 20
-282.7096899221
 10
361.5361581531
 20
-277.9528839826
 10
361.4194919393
 20
-273.0469882625
  0
LWPOLYLINE
  5
E7
330
1F
100
AcDbEntity
  8
0
  6
Continuous
 62
     7
370
    25
100
AcDbPolyline
 90
       60
 70
   128
 43
0.0
 10
522.6702776563
 20
-144.3888809674
 10
524.1774366836
 20
-145.3068678656
 10
527.0544691692
 20
-147.3491944515
 10
529.7536645323
 20
-149.6686183628
 10
532.2671055679
 20
-152.2583363295
 10
534.5874199204
 20
-155.1107522624
 10
536.7078017079
 20
-158.2174995344
 10
538.6220314854
 20
-161.5694655202
 10
540.3244944871
 20
-165.1568183262
 10
541.8101970956
 20
-168.9690356284
 10
543.0747814893
 20
-172.9949355367
 10
544.1145384243
 20
-177.2227093931
 10
544.9264181142
 20
-181.6399564082
 10
545.5080391761
 20
-186.2337200357
 10
545.8576956153
 20
-190.9905259751
 10
545.974361829
 20
-195.8964216952
 10
545.8576956153
 20
-200.9370173586
 10
545.5080391761
 20
-206.0975280296
 10
544.9264181142
 20
-211.3628170413
 10
544.1145384243
 20
-216.7174403939
 10
543.0747814893
 20
-222.1456920544
 10
541.8101970956
 20
-227.6316500255
 10
540.3244944871
 20
-233.1592230472
 10
538.6220314854
 20
-238.7121977954
 10
536.7078017079
 20
-244.2742864386
 10
534.5874199204
 20
-249.8291744122
 10
532.2671055679
 20
-255.3605682729
 10
529.7536645323
 20
-260.8522434893
 10
527.0544691692
 20
-266.2880920319
 10
524.1774366836
 20
-271.6521696203
 10
521.1310059076
 20
-276.9287424907
 10
517.9241125474
 20
-282.1023335458
 10
514.5661629738
 20
-287.1577677515
 10
511.0670066316
 20
-292.0802166483
 10
507.4369071492
 20
-296.8552418455
 10
503.6865122337
 20
-301.4688373715
 10
499.8268224397
 20
-305.9074707556
 10
495.8691589024
 20
-310.1581227213
 10
491.8251301308
 20
-314.2083253742
 10
487.7065979581
 20
-318.0461987719
 10
483.5256427487
 20
-321.6604857705
 10
479.2945279646
 20
-325.0405850435
 10
475.0256641946
 20
-328.1765821775
 10
470.7315727515
 20
-331.0592787523
 10
466.4248489455
 20
-333.6802193224
 10
462.1181251395
 20
-336.0317162175
 10
457.8240336965
 20
-338.1068720919
 10
453.5551699264
 20
-339.899600156
 10
449.3240551424
 20
-341.4046420294
 10
445.143099933
 20
-342.6175831651
 10
441.0245677603
 20
-343.5348657977
 10
436.9805389887
 20
-344.1537993792
 10
433.0228754513
 20
-344.4725684708
 10
429.1631856574
 20
-344.4902380677
 10
425.4127907419
 20
-344.2067563421
 10
421.7826912594
 20
-343.6229547946
 10
418.2835349172
 20
-342.7405458159
 10
414.9255853437
 20
-341.5621176633
 10
411.7186919835
 20
-340.0911268699
 10
410.1794202348
 20
-339.2498750031
  0
LWPOLYLINE
  5
E8
330
1F
100
AcDbEntity
  8
0
  6
Continuous
 62
     7
370
    25
100
AcDbPolyline
 90
      106
 70
   128
 43
0.0
 10
375.9151809537
 20
-264.6788051163
 10
376.0316188565
 20
-260.1189939635
 10
376.3805157475
 20
-255.4410694101
 10
376.9606226665
 20
-250.6617772119
 10
377.7698629811
 20
-245.7982259947
 10
378.805339821
 20
-240.8678260095
 10
380.0633464481
 20
-235.8882268086
 10
381.5393795249
 20
-230.8772540648
 10
383.2281552361
 20
-225.8528457601
 10
385.1236282031
 20
-220.832987972
 10
387.2190131246
 20
-215.8356504888
 10
389.5068090663
 20
-210.8787224815
 10
391.9788263125
 20
-205.9799484659
 10
394.6262156831
 20
-201.1568647817
 10
397.4395002113
 20
-196.4267368166
 10
400.4086090685
 20
-191.8064972012
 10
403.5229136156
 20
-187.312685194
 10
406.7712654507
 20
-182.9613874759
 10
410.1420363172
 20
-178.7681805633
 10
413.6231597302
 20
-174.7480750487
 10
417.2021741715
 20
-170.9154618664
 10
420.8662676982
 20
-167.284060777
 10
424.6023238064
 20
-163.8668712539
 10
428.3969683849
 20
-160.6761259487
 10
432.2366175909
 20
-157.7232469015
 10
436.1075264769
 20
-155.0188046529
 10
439.9958381937
 20
-152.5724804042
 10
443.8876335944
 20
-150.3930313613
 10
447.7689810615
 20
-148.4882593862
 10
451.6259863786
 20
-146.8649830682
 10
455.4448424676
 20
-145.5290133152
 10
459.2118788148
 20
-144.4851325522
 10
462.9136104078
 20
-143.7370776014
 10
466.5367860082
 20
-143.2875263054
 10
470.0684355877
 20
-143.1380879411
 10
473.4959167574
 20
-143.2892974591
 10
476.8069600243
 20
-143.7406135686
 10
479.9897127127
 20
-144.490420675
 10
483.0327813942
 20
-145.5360346635
 10
485.9252726726
 20
-146.8737125074
 10
488.6568321798
 20
-148.4986656672
 10
491.2176816418
 20
-150.4050772323
 10
493.598653882
 20
-152.586122744
 10
495.791225638
 20
-155.0339946256
 10
497.7875480716
 20
-157.7399301309
 10
499.5804748669
 20
-160.6942427132
 10
501.1635878112
 20
-163.8863567002
 10
502.5312197711
 20
-167.3048451522
 10
503.6784749789
 20
-170.9374707679
 10
504.601246559
 20
-174.7712296902
 10
505.2962312285
 20
-178.7923980573
 10
505.7609411226
 20
-182.98658113
 10
505.9937127006
 20
-187.3387648216
 10
505.9937127006
 20
-191.8333694438
 10
505.7609411226
 20
-196.4543054787
 10
505.2962312285
 20
-201.1850311746
 10
504.601246559
 20
-206.0086117612
 10
503.6784749789
 20
-210.907780072
 10
502.5312197711
 20
-215.8649983559
 10
501.1635878112
 20
-220.8625210581
 10
499.5804748669
 20
-225.8824583442
 10
497.7875480716
 20
-230.9068401417
 10
495.791225638
 20
-235.9176804677
 10
493.598653882
 20
-240.8970418144
 10
491.2176816418
 20
-245.8270993604
 10
488.6568321798
 20
-250.6902047793
 10
485.9252726726
 20
-255.4689494157
 10
483.0327813942
 20
-260.1462266043
 10
479.9897127127
 20
-264.7052929065
 10
476.8069600243
 20
-269.1298280482
 10
473.4959167574
 20
-273.403993342
 10
470.0684355877
 20
-277.5124883853
 10
466.5367860082
 20
-281.4406058323
 10
462.9136104078
 20
-285.174284042
 10
459.2118788148
 20
-288.7001574153
 10
455.4448424676
 20
-292.0056042407
 10
451.6259863786
 20
-295.0787918765
 10
447.7689810615
 20
-297.9087191085
 10
443.8876335944
 20
-300.4852555317
 10
439.9958381937
 20
-302.7991778144
 10
436.1075264769
 20
-304.8422027154
 10
432.2366175909
 20
-306.6070167357
 10
428.3969683849
 20
-308.0873022992
 10
424.6023238064
 20
-309.2777603678
 10
420.8662676982
 20
-310.1741294106
 10
417.2021741715
 20
-310.7732006589
 10
413.6231597302
 20
-311.0728295933
 10
410.1420363172
 20
-311.0719436199
 10
406.7712654507
 20
-310.7705459103
 10
403.5229136156
 20
-310.16971539
 10
400.4086090685
 20
-309.2716028764
 10
397.4395002113
 20
-308.0794233791
 10
394.6262156831
 20
-306.5974445914
 10
391.9788263125
 20
-304.8309716127
 10
389.5068090663
 20
-302.7863279578
 10
387.2190131246
 20
-300.4708329203
 10
385.1236282031
 20
-297.8927753715
 10
383.2281552361
 20
-295.0613840884
 10
381.5393795249
 20
-291.9867947168
 10
380.0633464481
 20
-288.6800134888
 10
378.805339821
 20
-285.1528778229
 10
377.7698629811
 20
-281.4180139494
 10
376.9606226665
 20
-277.4887917117
 10
376.3805157475
 20
-273.3792767055
 10
376.0316188565
 20
-269.1041799281
 10
375.9151809537
 20
-264.6788051163
  0
LWPOLYLINE
  5
E9
330
1F
100
AcDbEntity
  8
0
  6
Continuous
 62
     7
370
    25
100
AcDbPolyline
 90
       81
 70
   128
 43
0.0
 10
500.7282463216
 20
-131.7220158997
 10
503.719609892
 20
-131.2651527523
 10
507.8850507188
 20
-130.8709183189
 10
511.9561623194
 20
-130.7741229321
 10
515.9223236286
 20
-130.9750191202
 10
519.7731873843
 20
-131.4730827677
 10
523.4987071226
 20
-132.2670144837
 10
527.089163388
 20
-133.3547429908
 10
530.53518909
 20
-134.7334305295
 10
533.827793941
 20
-136.3994802616
 10
536.9583879109
 20
-138.3485456535
 10
539.9188036375
 20
-140.575541816
 10
542.7013177341
 20
-143.0746587706
 10
545.2986709391
 20
-145.8393766064
 10
547.7040870547
 20
-148.8624824903
 10
549.9112906249
 20
-152.1360894841
 10
551.9145233075
 20
-155.651657121
 10
553.7085588971
 20
-159.4000136865
 10
555.2887169598
 20
-163.3713801462
 10
556.6508750437
 20
-167.5553956585
 10
557.7914794337
 20
-171.9411446046
 10
558.7075544233
 20
-176.5171850664
 10
559.3967100775
 20
-181.2715786766
 10
559.8571484677
 20
-186.1919217654
 10
560.0876683629
 20
-191.2653777192
 10
560.0876683629
 20
-196.4787104709
 10
559.8571484677
 20
-201.8183190304
 10
559.3967100775
 20
-207.2702729689
 10
558.7075544233
 20
-212.8203487609
 10
557.7914794337
 20
-218.4540668923
 10
556.6508750437
 20
-224.1567296359
 10
555.2887169598
 20
-229.9134593956
 10
553.7085588971
 20
-235.7092375209
 10
551.9145233075
 20
-241.5289434882
 10
549.9112906249
 20
-247.3573943493
 10
547.7040870547
 20
-253.1793843414
 10
545.2986709391
 20
-258.9797245572
 10
542.7013177341
 20
-264.7432825715
 10
539.9188036375
 20
-270.4550219194
 10
536.9583879109
 20
-276.1000413252
 10
533.827793941
 20
-281.6636135777
 10
530.53518909
 20
-287.1312239523
 10
527.089163388
 20
-292.4886080776
 10
523.4987071226
 20
-297.7217891503
 10
519.7731873843
 20
-302.8171143984
 10
515.9223236286
 20
-307.7612907001
 10
511.9561623194
 20
-312.541419264
 10
507.8850507188
 20
-317.1450292805
 10
503.719609892
 20
-321.5601104566
 10
499.4707069985
 20
-325.7751443496
 10
495.149426941
 20
-329.7791344175
 10
490.7670434456
 20
-333.5616347072
 10
486.3349896505
 20
-337.1127771074
 10
481.864828278
 20
-340.4232970931
 10
477.3682214689
 20
-343.4845578956
 10
472.8569003567
 20
-346.2885730349
 10
468.3426344632
 20
-348.8280271559
 10
463.8372009926
 20
-351.0962951125
 10
459.3523541066
 20
-353.0874592527
 10
454.8997942584
 20
-354.7963248566
 10
450.4911376685
 20
-356.2184336889
 10
446.1378860184
 20
-357.3500756302
 10
441.8513964447
 20
-358.1882983556
 10
437.6428519092
 20
-358.730915038
 10
433.5232320241
 20
-358.9765100523
 10
429.5032844073
 20
-358.9244426692
 10
425.5934966431
 20
-358.5748487264
 10
421.8040689215
 20
-357.9286402748
 10
418.1448874267
 20
-356.9875031983
 10
414.6254985453
 20
-355.7538928162
 10
411.2550839612
 20
-354.231027477
 10
408.0424367011
 20
-352.4228801627
 10
404.995938195
 20
-350.3341681229
 10
402.1235364096
 20
-347.9703405691
 10
399.4327251132
 20
-345.3375644573
 10
396.9305243253
 20
-342.4427083999
 10
394.6234620019
 20
-339.2933247458
 10
392.5175570053
 20
-335.8976298773
 10
390.6183034012
 20
-332.2644827746
 10
388.9306561254
 20
-328.4033619037
 10
388.2373889
 20
-326.5830099354
  0
LWPOLYLINE
  5
EA
330
1F
100
AcDbEntity
  8
0
  6
Continuous
 62
     7
370
    25
100
AcDbPolyline
 90
       63
 70
   128
 43
0.0
 10
559.6789147169
 20
-151.3201466198
 10
562.4142320336
 20
-153.0438916663
 10
565.3746477602
 20
-155.2708878289
 10
568.1571618568
 20
-157.7700047834
 10
570.7545150619
 20
-160.5347226192
 10
573.1599311775
 20
-163.5578285031
 10
575.3671347476
 20
-166.8314354969
 10
577.3703674302
 20
-170.3470031338
 10
579.1644030198
 20
-174.0953596993
 10
580.7445610826
 20
-178.066726159
 10
582.1067191664
 20
-182.2507416713
 10
583.2473235564
 20
-186.6364906174
 10
584.163398546
 20
-191.2125310792
 10
584.8525542002
 20
-195.9669246894
 10
585.3129925904
 20
-200.8872677782
 10
585.5435124856
 20
-205.960723732
 10
585.5435124856
 20
-211.1740564837
 10
585.3129925904
 20
-216.5136650433
 10
584.8525542002
 20
-221.9656189817
 10
584.163398546
 20
-227.5156947737
 10
583.2473235564
 20
-233.1494129051
 10
582.1067191664
 20
-238.8520756487
 10
580.7445610826
 20
-244.6088054084
 10
579.1644030198
 20
-250.4045835337
 10
577.3703674302
 20
-256.224289501
 10
575.3671347476
 20
-262.0527403622
 10
573.1599311775
 20
-267.8747303542
 10
570.7545150619
 20
-273.67507057
 10
568.1571618568
 20
-279.4386285843
 10
565.3746477602
 20
-285.1503679322
 10
562.4142320336
 20
-290.795387338
 10
559.2836380637
 20
-296.3589595905
 10
555.9910332127
 20
-301.8265699651
 10
552.5450075108
 20
-307.1839540904
 10
548.9545512454
 20
-312.4171351631
 10
545.229031507
 20
-317.5124604112
 10
541.3781677513
 20
-322.4566367129
 10
537.4120064421
 20
-327.2367652768
 10
533.3408948415
 20
-331.8403752933
 10
529.1754540147
 20
-336.2554564694
 10
524.9265511212
 20
-340.4704903624
 10
520.6052710637
 20
-344.4744804303
 10
516.2228875683
 20
-348.25698072
 10
511.7908337732
 20
-351.8081231202
 10
507.3206724008
 20
-355.1186431059
 10
502.8240655916
 20
-358.1799039084
 10
498.3127444794
 20
-360.9839190478
 10
493.7984785859
 20
-363.5233731687
 10
489.2930451153
 20
-365.7916411253
 10
484.8081982293
 20
-367.7828052655
 10
480.3556383812
 20
-369.4916708694
 10
475.9469817912
 20
-370.9137797017
 10
471.5937301411
 20
-372.045421643
 10
467.3072405674
 20
-372.8836443685
 10
463.0986960319
 20
-373.4262610508
 10
458.9790761468
 20
-373.6718560651
 10
454.95912853
 20
-373.619788682
 10
451.0493407659
 20
-373.2701947392
 10
447.2599130442
 20
-372.6239862876
 10
443.6007315494
 20
-371.6828492111
 10
440.081342668
 20
-370.449238829
 10
436.7109280839
 20
-368.9263734899
 10
434.6890731374
 20
-367.832362215
  0
LWPOLYLINE
  5
EB
330
1F
100
AcDbEntity
  8
0
  6
Continuous
 62
     7
370
    25
100
AcDbPolyline
 90
       86
 70
   128
 43
0.0
 10
534.5165135673
 20
-136.7942016296
 10
538.6520477956
 20
-136.0978804115
 10
543.0830316865
 20
-135.6232228396
 10
547.4216795739
 20
-135.4466437317
 10
551.6578583446
 20
-135.5685554966
 10
555.7816742066
 20
-135.9886734037
 10
559.7834957972
 20
-136.706016248
 10
563.6539766763
 20
-137.7189086422
 10
567.3840771568
 20
-139.0249849292
 10
570.965085416
 20
-140.6211947072
 10
574.3886378431
 20
-142.5038099543
 10
577.646738573
 20
-144.6684337355
 10
580.7317781604
 20
-147.1100104716
 10
583.6365513523
 20
-149.8228377469
 10
586.3542739164
 20
-152.8005796277
 10
588.8785984857
 20
-156.0362814599
 10
591.2036293833
 20
-159.5223861118
 10
593.3239363917
 20
-163.2507516246
 10
595.2345674356
 20
-167.2126702279
 10
596.9310601477
 20
-171.398888677
 10
598.4094522908
 20
-175.799629865
 10
599.6662910114
 20
-180.4046156568
 10
600.6986409044
 20
-185.2030908948
 10
601.5040908689
 20
-190.1838485176
 10
602.0807597392
 20
-195.3352557352
 10
602.4273006783
 20
-200.6452811971
 10
602.5429043239
 20
-206.101523093
 10
602.4273006783
 20
-211.6912381171
 10
602.0807597392
 20
-217.4013712309
 10
601.5040908689
 20
-223.2185861539
 10
600.6986409044
 20
-229.1292965112
 10
599.6662910114
 20
-235.1196975648
 10
598.4094522908
 20
-241.1757984556
 10
596.9310601477
 20
-247.2834548792
 10
595.2345674356
 20
-253.4284021211
 10
593.3239363917
 20
-259.5962883723
 10
591.2036293833
 20
-265.7727082486
 10
588.8785984857
 20
-271.9432364353
 10
586.3542739164
 20
-278.0934613778
 10
583.6365513523
 20
-284.2090189409
 10
580.7317781604
 20
-290.2756259564
 10
577.646738573
 20
-296.2791135827
 10
574.3886378431
 20
-302.205460396
 10
570.9650854159
 20
-308.040825139
 10
567.3840771568
 20
-313.7715790468
 10
563.6539766763
 20
-319.3843376781
 10
559.7834957972
 20
-324.8659921752
 10
555.7816742066
 20
-330.2037398799
 10
551.6578583446
 20
-335.3851142351
 10
547.4216795739
 20
-340.3980139009
 10
543.0830316865
 20
-345.230731018
 10
538.6520477956
 20
-349.8719785515
 10
534.1390766692
 20
-354.3109166528
 10
529.5546585607
 20
-358.5371779763
 10
524.9095005909
 20
-362.5408918927
 10
520.2144517414
 20
-366.3127075429
 10
515.4804775165
 20
-369.8438156764
 10
510.7186343322
 20
-373.1259692268
 10
505.940043694
 20
-376.1515025722
 10
501.1558662217
 20
-378.9133494394
 10
496.3772755835
 20
-381.405059407
 10
491.6154323992
 20
-383.620812971
 10
486.8814581742
 20
-385.5554351362
 10
482.1864093248
 20
-387.2044075029
 10
477.541251355
 20
-388.5638788198
 10
472.9568332464
 20
-389.6306739786
 10
468.4438621201
 20
-390.4023014298
 10
464.0128782291
 20
-390.8769590017
 10
459.6742303417
 20
-391.0535381095
 10
455.4380515711
 20
-390.9316263446
 10
451.314235709
 20
-390.5115084376
 10
447.3124141185
 20
-389.7941655932
 10
443.4419332393
 20
-388.781273199
 10
439.7118327589
 20
-387.4751969121
 10
436.1308244997
 20
-385.8789871341
 10
432.7072720725
 20
-383.9963718869
 10
429.4491713426
 20
-381.8317481057
 10
426.3641317553
 20
-379.3901713697
 10
423.4593585634
 20
-376.6773440943
 10
420.7416359992
 20
-373.6996022135
 10
418.2173114299
 20
-370.4639003813
 10
415.8922805324
 20
-366.9777957294
 10
413.771973524
 20
-363.2494302166
 10
411.8613424801
 20
-359.2875116134
 10
410.1648497679
 20
-355.1012931642
 10
409.5266719878
 20
-353.3064172248
  0
LWPOLYLINE
  5
EC
330
1F
100
AcDbEntity
  8
0
  6
Continuous
 62
     7
370
    25
100
AcDbPolyline
 90
       67
 70
   128
 43
0.0
 10
598.9981103651
 20
-156.6985962001
 10
599.8444819659
 20
-157.1991559671
 10
603.1025826957
 20
-159.3637797483
 10
606.1876222831
 20
-161.8053564844
 10
609.092395475
 20
-164.5181837597
 10
611.8101180391
 20
-167.4959256406
 10
614.3344426085
 20
-170.7316274727
 10
616.659473506
 20
-174.2177321247
 10
618.7797805144
 20
-177.9460976374
 10
620.6904115583
 20
-181.9080162407
 10
622.3869042705
 20
-186.0942346898
 10
623.8652964135
 20
-190.4949758778
 10
625.1221351341
 20
-195.0999616696
 10
626.1544850271
 20
-199.8984369076
 10
626.9599349916
 20
-204.8791945304
 10
627.5366038619
 20
-210.030601748
 10
627.8831448011
 20
-215.3406272099
 10
627.9987484467
 20
-220.7968691058
 10
627.8831448011
 20
-226.3865841299
 10
627.5366038619
 20
-232.0967172437
 10
626.9599349916
 20
-237.9139321667
 10
626.1544850271
 20
-243.824642524
 10
625.1221351341
 20
-249.8150435776
 10
623.8652964135
 20
-255.8711444684
 10
622.3869042705
 20
-261.978800892
 10
620.6904115583
 20
-268.1237481339
 10
618.7797805144
 20
-274.2916343851
 10
616.659473506
 20
-280.4680542614
 10
614.3344426085
 20
-286.6385824481
 10
611.8101180391
 20
-292.7888073907
 10
609.092395475
 20
-298.9043649537
 10
606.1876222831
 20
-304.9709719692
 10
603.1025826957
 20
-310.9744595955
 10
599.8444819659
 20
-316.9008064088
 10
596.4209295387
 20
-322.7361711518
 10
592.8399212795
 20
-328.4669250596
 10
589.1098207991
 20
-334.079683691
 10
585.2393399199
 20
-339.561338188
 10
581.2375183294
 20
-344.8990858927
 10
577.1137024673
 20
-350.0804602479
 10
572.8775236966
 20
-355.0933599137
 10
568.5388758093
 20
-359.9260770308
 10
564.1078919183
 20
-364.5673245643
 10
559.594920792
 20
-369.0062626656
 10
555.0105026834
 20
-373.2325239891
 10
550.3653447136
 20
-377.2362379055
 10
545.6702958641
 20
-381.0080535557
 10
540.9363216392
 20
-384.5391616893
 10
536.1744784549
 20
-387.8213152396
 10
531.3958878167
 20
-390.846848585
 10
526.6117103444
 20
-393.6086954522
 10
521.8331197062
 20
-396.1004054199
 10
517.0712765219
 20
-398.3161589838
 10
512.337302297
 20
-400.250781149
 10
507.6422534475
 20
-401.8997535158
 10
502.9970954777
 20
-403.2592248326
 10
498.4126773691
 20
-404.3260199914
 10
493.8997062428
 20
-405.0976474426
 10
489.4687223518
 20
-405.5723050145
 10
485.1300744645
 20
-405.7488841223
 10
480.8938956938
 20
-405.6269723574
 10
476.7700798317
 20
-405.2068544504
 10
472.7682582412
 20
-404.4895116061
 10
468.897777362
 20
-403.4766192118
 10
465.1676768816
 20
-402.1705429249
 10
461.5866686224
 20
-400.5743331469
 10
459.009487796
 20
-399.1922776667
  0
LWPOLYLINE
  5
ED
330
1F
100
AcDbEntity
  8
0
  6
Continuous
 62
     7
370
    25
100
AcDbPolyline
 90
       92
 70
   128
 43
0.0
 10
570.1065029128
 20
-140.2056095909
 10
573.7237343149
 20
-139.5218195206
 10
578.461338728
 20
-138.8726290704
 10
583.1118234989
 20
-138.520571937
 10
587.6655497877
 20
-138.4663778123
 10
592.1130793014
 20
-138.7101590221
 10
596.4451938559
 20
-139.2514102925
 10
600.6529144822
 20
-140.0890097977
 10
604.7275200368
 20
-141.2212214847
 10
608.6605652774
 20
-142.645698672
 10
612.4438983672
 20
-144.3594889129
 10
616.0696777706
 20
-146.3590401157
 10
619.5303885061
 20
-148.640207905
 10
622.8188577223
 20
-151.1982642122
 10
625.9282695644
 20
-154.027907075
 10
628.8521793018
 20
-157.1232716266
 10
631.5845266848
 20
-160.4779422511
 10
634.1196485064
 20
-164.0849658814
 10
636.4522903394
 20
-167.9368664102
 10
638.5776174274
 20
-172.0256601856
 10
640.4912247055
 20
-176.3428725579
 10
642.1891459303
 20
-180.8795554453
 10
643.6678619009
 20
-185.6263058797
 10
644.9243077525
 20
-190.5732854959
 10
645.9558793093
 20
-195.7102409234
 10
646.7604384818
 20
-201.0265250375
 10
647.3363176981
 20
-206.5111190275
 10
647.6823233607
 20
-212.1526552349
 10
647.7977383199
 20
-217.9394407145
 10
647.6823233607
 20
-223.8594814695
 10
647.3363176981
 20
-229.9005073115
 10
646.7604384818
 20
-236.049997292
 10
645.9558793093
 20
-242.2952056539
 10
644.9243077525
 20
-248.6231882491
 10
643.6678619009
 20
-255.0208293675
 10
642.1891459303
 20
-261.4748689209
 10
640.4912247055
 20
-267.9719299266
 10
638.5776174274
 20
-274.4985462337
 10
636.4522903394
 20
-281.0411904332
 10
634.1196485064
 20
-287.5863018958
 10
631.5845266848
 20
-294.1203148786
 10
628.8521793018
 20
-300.6296866418
 10
625.9282695644
 20
-307.1009255186
 10
622.8188577223
 20
-313.5206188781
 10
619.5303885061
 20
-319.8754609254
 10
616.0696777706
 20
-326.1522802801
 10
612.4438983672
 20
-332.3380672754
 10
608.6605652774
 20
-338.4200009233
 10
604.7275200368
 20
-344.3854754876
 10
600.6529144822
 20
-350.2221266111
 10
596.4451938559
 20
-355.9178569431
 10
592.1130793014
 20
-361.4608612129
 10
587.6655497877
 20
-366.8396506974
 10
583.1118234989
 20
-372.0430770343
 10
578.461338728
 20
-377.0603553278
 10
573.7237343149
 20
-381.8810865024
 10
568.9088296683
 20
-386.4952788567
 10
564.0266044133
 20
-390.8933687724
 10
559.0871777072
 20
-395.0662405364
 10
554.1007872662
 20
-399.005245235
 10
549.0777681459
 20
-402.7022186792
 10
544.0285313206
 20
-406.1494983271
 10
538.9635421046
 20
-409.3399391652
 10
533.8932984614
 20
-412.2669285177
 10
528.8283092454
 20
-414.9243997521
 10
523.7790724201
 20
-417.3068448535
 10
518.7560532998
 20
-419.4093258407
 10
513.7696628588
 20
-421.2274850006
 10
508.8302361527
 20
-422.7575539209
 10
503.9480108977
 20
-423.9963613
 10
499.1331062511
 20
-424.9413395204
 10
494.395501838
 20
-425.5905299706
 10
489.7450170671
 20
-425.942587104
 10
485.1912907783
 20
-425.9967812287
 10
480.7437612646
 20
-425.7530000189
 10
476.4116467101
 20
-425.2117487485
 10
472.2039260838
 20
-424.3741492433
 10
468.1293205292
 20
-423.2419375563
 10
464.1962752886
 20
-421.817460369
 10
460.4129421988
 20
-420.1036701281
 10
456.7871627954
 20
-418.1041189253
 10
453.3264520599
 20
-415.822951136
 10
450.0379828437
 20
-413.2648948288
 10
446.9285710016
 20
-410.435251966
 10
444.0046612642
 20
-407.3398874144
 10
441.2723138812
 20
-403.9852167899
 10
438.7371920596
 20
-400.3781931596
 10
436.4045502266
 20
-396.5262926308
 10
434.2792231386
 20
-392.4374988554
 10
432.3656158606
 20
-388.1202864831
 10
430.6676946357
 20
-383.5836035957
 10
430.2787647316
 20
-382.4206009269
  0
LWPOLYLINE
  5
EE
330
1F
100
AcDbEntity
  8
0
  6
Continuous
 62
     7
370
    25
100
AcDbPolyline
 90
       35
 70
   128
 43
0.0
 10
409.5750862407
 20
-284.1102548285
 10
409.6915241435
 20
-279.5504436756
 10
410.0404210346
 20
-274.8725191222
 10
410.6205279535
 20
-270.0932269241
 10
411.4297682681
 20
-265.2296757068
 10
412.4652451081
 20
-260.2992757216
 10
413.7232517351
 20
-255.3196765208
 10
415.1992848119
 20
-250.308703777
 10
416.8880605232
 20
-245.2842954722
 10
418.7835334902
 20
-240.2644376842
 10
420.8789184116
 20
-235.2671002009
 10
423.1667143533
 20
-230.3101721936
 10
425.6387315996
 20
-225.4113981781
 10
428.2861209702
 20
-220.5883144939
 10
431.0994054983
 20
-215.8581865288
 10
434.0685143555
 20
-211.2379469133
 10
437.1828189026
 20
-206.7441349062
 10
440.4311707377
 20
-202.3928371881
 10
443.8019416042
 20
-198.1996302755
 10
447.2830650173
 20
-194.1795247608
 10
450.8620794585
 20
-190.3469115786
 10
454.5261729852
 20
-186.7155104892
 10
458.2622290934
 20
-183.2983209661
 10
462.0568736719
 20
-180.1075756609
 10
465.896522878
 20
-177.1546966137
 10
469.7674317639
 20
-174.450254365
 10
473.6557434807
 20
-172.0039301163
 10
477.5475388814
 20
-169.8244810735
 10
481.4288863486
 20
-167.9197090984
 10
485.2858916657
 20
-166.2964327804
 10
489.1047477546
 20
-164.9604630274
 10
492.8717841018
 20
-163.9165822644
 10
496.5735156948
 20
-163.1685273136
 10
500.1966912952
 20
-162.7189760176
 10
500.6066768736
 20
-162.6865772075
  0
ARC
  5
EF
330
1F
100
AcDbEntity
  8
0
  6
Continuous
 62
     7
370
    25
100
AcDbCircle
 10
472.542852869
 20
-285.4108561822
 30
0.0
 40
62.98119717852656
100
AcDbArc
 50
178.8167219874
 51
203.9654690884
  0
LWPOLYLINE
  5
F0
330
1F
100
AcDbEntity
  8
0
  6
Continuous
 62
     7
370
    25
100
AcDbPolyline
 90
       71
 70
   128
 43
0.0
 10
640.6278646008
 20
-160.5242297084
 10
641.5255218933
 20
-161.0543861285
 10
644.9862326288
 20
-163.3355539178
 10
648.274701845
 20
-165.893610225
 10
651.3841136872
 20
-168.7232530879
 10
654.3080234245
 20
-171.8186176394
 10
657.0403708075
 20
-175.1732882639
 10
659.5754926291
 20
-178.7803118942
 10
661.9081344621
 20
-182.6322124231
 10
664.0334615501
 20
-186.7210061984
 10
665.9470688282
 20
-191.0382185707
 10
667.644990053
 20
-195.5749014581
 10
669.1237060236
 20
-200.3216518925
 10
670.3801518752
 20
-205.2686315087
 10
671.4117234321
 20
-210.4055869362
 10
672.2162826045
 20
-215.7218710503
 10
672.7921618208
 20
-221.2064650403
 10
673.1381674834
 20
-226.8480012478
 10
673.2535824426
 20
-232.6347867273
 10
673.1381674834
 20
-238.5548274823
 10
672.7921618208
 20
-244.5958533243
 10
672.2162826045
 20
-250.7453433048
 10
671.4117234321
 20
-256.9905516667
 10
670.3801518752
 20
-263.318534262
 10
669.1237060236
 20
-269.7161753804
 10
667.644990053
 20
-276.1702149337
 10
665.9470688282
 20
-282.6672759395
 10
664.0334615501
 20
-289.1938922465
 10
661.9081344621
 20
-295.736536446
 10
659.5754926291
 20
-302.2816479086
 10
657.0403708075
 20
-308.8156608914
 10
654.3080234245
 20
-315.3250326547
 10
651.3841136872
 20
-321.7962715314
 10
648.274701845
 20
-328.2159648909
 10
644.9862326288
 20
-334.5708069382
 10
641.5255218933
 20
-340.8476262929
 10
637.8997424899
 20
-347.0334132882
 10
634.1164094001
 20
-353.1153469362
 10
630.1833641595
 20
-359.0808215004
 10
626.1087586049
 20
-364.9174726239
 10
621.9010379786
 20
-370.6132029559
 10
617.5689234242
 20
-376.1562072257
 10
613.1213939104
 20
-381.5349967103
 10
608.5676676216
 20
-386.7384230471
 10
603.9171828507
 20
-391.7557013406
 10
599.1795784377
 20
-396.5764325152
 10
594.364673791
 20
-401.1906248695
 10
589.482448536
 20
-405.5887147852
 10
584.5430218299
 20
-409.7615865492
 10
579.5566313889
 20
-413.7005912478
 10
574.5336122687
 20
-417.397564692
 10
569.4843754433
 20
-420.8448443399
 10
564.4193862273
 20
-424.035285178
 10
559.3491425841
 20
-426.9622745305
 10
554.2841533681
 20
-429.6197457649
 10
549.2349165428
 20
-432.0021908663
 10
544.2118974225
 20
-434.1046718535
 10
539.2255069815
 20
-435.9228310134
 10
534.2860802755
 20
-437.4528999337
 10
529.4038550204
 20
-438.6917073128
 10
524.5889503738
 20
-439.6366855332
 10
519.8513459607
 20
-440.2858759834
 10
515.2008611898
 20
-440.6379331168
 10
510.647134901
 20
-440.6921272415
 10
506.1996053873
 20
-440.4483460317
 10
501.8674908328
 20
-439.9070947613
 10
497.6597702065
 20
-439.0694952561
 10
493.5851646519
 20
-437.9372835691
 10
489.6521194113
 20
-436.5128063818
 10
485.8687863215
 20
-434.7990161409
 10
483.1406642106
 20
-433.3296213583
  0
LWPOLYLINE
  5
F1
330
1F
100
AcDbEntity
  8
0
  6
Continuous
 62
     7
370
    25
100
AcDbPolyline
 90
       29
 70
   128
 43
0.0
 10
433.8985092527
 20
-305.8824783836
 10
434.0120014986
 20
-301.7667876495
 10
434.3592063106
 20
-296.8556547658
 10
434.9366450855
 20
-291.8418386945
 10
435.7424681129
 20
-286.7414002001
 10
436.7740940986
 20
-281.5706775247
 10
438.0282184336
 20
-276.3462340518
 10
439.5008237796
 20
-271.0848052491
 10
441.1871929376
 20
-265.803245059
 10
443.081923959
 20
-260.5184719112
 10
445.178947449
 20
-255.2474145273
 10
447.4715460091
 20
-250.0069576932
 10
449.9523757551
 20
-244.813888172
 10
452.6134898412
 20
-239.6848409309
 10
455.446363917
 20
-234.6362458545
 10
458.4419234326
 20
-229.6842751149
 10
461.5905727078
 20
-224.8447913673
 10
464.8822256698
 20
-220.1332969371
 10
468.3063381618
 20
-215.5648841613
 10
471.8519417191
 20
-211.1541870434
 10
475.5076787048
 20
-206.9153343759
 10
479.261838691
 20
-202.8619044818
 10
483.1023959716
 20
-199.0068817191
 10
487.0170480837
 20
-195.3626148879
 10
490.9932552166
 20
-191.9407776735
 10
495.0182803799
 20
-188.7523312521
 10
499.0792302048
 20
-185.8074891789
 10
503.1630962445
 20
-183.1156846707
 10
505.6363022396
 20
-181.6155115228
  0
ARC
  5
F2
330
1F
100
AcDbEntity
  8
0
  6
Continuous
 62
     7
370
    25
100
AcDbCircle
 10
650.8820578124
 20
-348.3042580697
 30
0.0
 40
195.2569266412021
100
AcDbArc
 50
140.5396449618
 51
159.4657315709
  0
LINE
  5
F3
330
1F
100
AcDbEntity
  8
0
  6
Continuous
 62
     7
370
    25
100
AcDbLine
 10
-21.1085637019
 20
-208.5806514213
 30
0.0
 11
-21.1085637019
 21
-244.5806514213
 31
0.0
  0
LINE
  5
F4
330
1F
100
AcDbEntity
  8
0
  6
Continuous
 62
     7
370
    25
100
AcDbLine
 10
293.8914362981
 20
-244.5806514213
 30
0.0
 11
293.8914362981
 21
-208.5806514213
 31
0.0
  0
LINE
  5
F5
330
1F
100
AcDbEntity
  8
0
  6
Continuous
 62
     7
370
    25
100
AcDbLine
 10
-21.1085637019
 20
-244.5806514213
 30
0.0
 11
-3.6085637019
 21
-255.0806514213
 31
0.0
  0
LINE
  5
F6
330
1F
100
AcDbEntity
  8
0
  6
Continuous
 62
     7
370
    25
100
AcDbLine
 10
276.3914362981
 20
-255.0806514213
 30
0.0
 11
293.8914362981
 21
-244.5806514213
 31
0.0
  0
LINE
  5
F7
330
1F
100
AcDbEntity
  8
0
  6
Continuous
 62
     7
370
    25
100
AcDbLine
 10
-3.6085637019
 20
-255.0806514213
 30
0.0
 11
-3.6085637019
 21
-291.0806514213
 31
0.0
  0
LINE
  5
F8
330
1F
100
AcDbEntity
  8
0
  6
Continuous
 62
     7
370
    25
100
AcDbLine
 10
276.3914362981
 20
-291.0806514213
 30
0.0
 11
276.3914362981
 21
-255.0806514213
 31
0.0
  0
LINE
  5
F9
330
1F
100
AcDbEntity
  8
0
  6
Continuous
 62
     7
370
    25
100
AcDbLine
 10
-3.6085637019
 20
-291.0806514213
 30
0.0
 11
11.3914362981
 21
-300.0806514213
 31
0.0
  0
LINE
  5
FA
330
1F
100
AcDbEntity
  8
0
  6
Continuous
 62
     7
370
    25
100
AcDbLine
 10
261.3914362981
 20
-300.0806514213
 30
0.0
 11
276.3914362981
 21
-291.0806514213
 31
0.0
  0
LINE
  5
FB
330
1F
100
AcDbEntity
  8
0
  6
Continuous
 62
     7
370
    25
100
AcDbLine
 10
11.3914362981
 20
-300.0806514213
 30
0.0
 11
11.3914362981
 21
-336.0806514213
 31
0.0
  0
LINE
  5
FC
330
1F
100
AcDbEntity
  8
0
  6
Continuous
 62
     7
370
    25
100
AcDbLine
 10
261.3914362981
 20
-336.0806514213
 30
0.0
 11
261.3914362981
 21
-300.0806514213
 31
0.0
  0
LINE
  5
FD
330
1F
100
AcDbEntity
  8
0
  6
Continuous
 62
     7
370
    25
100
AcDbLine
 10
11.3914362981
 20
-336.0806514213
 30
0.0
 11
23.8914362981
 21
-343.5806514213
 31
0.0
  0
LINE
  5
FE
330
1F
100
AcDbEntity
  8
0
  6
Continuous
 62
     7
370
    25
100
AcDbLine
 10
248.8914362981
 20
-343.5806514213
 30
0.0
 11
261.3914362981
 21
-336.0806514213
 31
0.0
  0
LINE
  5
FF
330
1F
100
AcDbEntity
  8
0
  6
Continuous
 62
     7
370
    25
100
AcDbLine
 10
23.8914362981
 20
-343.5806514213
 30
0.0
 11
23.8914362981
 21
-379.5806514213
 31
0.0
  0
LINE
  5
100
330
1F
100
AcDbEntity
  8
0
  6
Continuous
 62
     7
370
    25
100
AcDbLine
 10
248.8914362981
 20
-379.5806514213
 30
0.0
 11
248.8914362981
 21
-343.5806514213
 31
0.0
  0
LINE
  5
101
330
1F
100
AcDbEntity
  8
0
  6
Continuous
 62
     7
370
    25
100
AcDbLine
 10
-21.1085637019
 20
-244.5806514213
 30
0.0
 11
293.8914362981
 21
-244.5806514213
 31
0.0
  0
LINE
  5
102
330
1F
100
AcDbEntity
  8
0
  6
Continuous
 62
     7
370
    25
100
AcDbLine
 10
-21.1085637019
 20
-208.5806514213
 30
0.0
 11
293.8914362981
 21
-208.5806514213
 31
0.0
  0
LINE
  5
103
330
1F
100
AcDbEntity
  8
0
  6
Continuous
 62
     7
370
    25
100
AcDbLine
 10
-3.6085637019
 20
-255.0806514213
 30
0.0
 11
276.3914362981
 21
-255.0806514213
 31
0.0
  0
LINE
  5
104
330
1F
100
AcDbEntity
  8
0
  6
Continuous
 62
     7
370
    25
100
AcDbLine
 10
-3.6085637019
 20
-291.0806514213
 30
0.0
 11
276.3914362981
 21
-291.0806514213
 31
0.0
  0
LINE
  5
105
330
1F
100
AcDbEntity
  8
0
  6
Continuous
 62
     7
370
    25
100
AcDbLine
 10
11.3914362981
 20
-300.0806514213
 30
0.0
 11
261.3914362981
 21
-300.0806514213
 31
0.0
  0
LINE
  5
106
330
1F
100
AcDbEntity
  8
0
  6
Continuous
 62
     7
370
    25
100
AcDbLine
 10
11.3914362981
 20
-336.0806514213
 30
0.0
 11
261.3914362981
 21
-336.0806514213
 31
0.0
  0
LINE
  5
107
330
1F
100
AcDbEntity
  8
0
  6
Continuous
 62
     7
370
    25
100
AcDbLine
 10
23.8914362981
 20
-343.5806514213
 30
0.0
 11
248.8914362981
 21
-343.5806514213
 31
0.0
  0
LINE
  5
108
330
1F
100
AcDbEntity
  8
0
  6
Continuous
 62
     7
370
    25
100
AcDbLine
 10
23.8914362981
 20
-379.5806514213
 30
0.0
 11
248.8914362981
 21
-379.5806514213
 31
0.0
  0
ENDSEC
  0
SECTION
  2
OBJECTS
  0
DICTIONARY
  5
C
330
0
100
AcDbDictionary
281
     1
  3
ACAD_GROUP
350
D
  3
ACAD_LAYOUT
350
1A
  3
ACAD_MLINESTYLE
350
17
  3
ACAD_PLOTSETTINGS
350
19
  3
ACAD_PLOTSTYLENAME
350
E
  3
ACAD_SCALELIST
350
47
  0
DICTIONARY
  5
D
102
{ACAD_REACTORS
330
C
102
}
330
C
100
AcDbDictionary
281
     1
  0
DICTIONARY
  5
1A
102
{ACAD_REACTORS
330
C
102
}
330
C
100
AcDbDictionary
281
     1
  3
Layout1
350
1E
  3
Layout2
350
26
  3
Model
350
22
  0
DICTIONARY
  5
17
102
{ACAD_REACTORS
330
C
102
}
330
C
100
AcDbDictionary
281
     1
  3
Standard
350
18
  0
DICTIONARY
  5
19
102
{ACAD_REACTORS
330
C
102
}
330
C
100
AcDbDictionary
281
     1
  0
ACDBDICTIONARYWDFLT
  5
E
102
{ACAD_REACTORS
330
C
102
}
330
C
100
AcDbDictionary
281
     1
  3
Normal
350
F
100
AcDbDictionaryWithDefault
340
F
  0
DICTIONARY
  5
47
102
{ACAD_REACTORS
330
C
102
}
330
C
100
AcDbDictionary
281
     1
  3
A0
350
48
  3
A1
350
49
  3
A2
350
4A
  3
A3
350
4B
  3
A4
350
4C
  3
A5
350
4D
  3
A6
350
4E
  3
A7
350
4F
  3
A8
350
50
  3
A9
350
51
  3
B0
350
52
  3
B1
350
53
  3
B2
350
54
  3
B3
350
55
  3
B4
350
56
  3
B5
350
57
  3
B6
350
58
  3
B7
350
59
  3
B8
350
5A
  3
B9
350
5B
  3
C0
350
5C
  3
C1
350
5D
  3
C2
350
5E
  3
C3
350
5F
  3
C4
350
60
  3
C5
350
61
  3
C6
350
62
  3
C7
350
63
  3
C8
350
64
  3
C9
350
65
  3
D0
350
66
  3
D1
350
67
  3
D2
350
68
  0
LAYOUT
  5
1E
102
{ACAD_REACTORS
330
1A
102
}
330
1A
100
AcDbPlotSettings
  1

  2
none_device
  4

  6

 40
0.0
 41
0.0
 42
0.0
 43
0.0
 44
0.0
 45
0.0
 46
0.0
 47
0.0
 48
0.0
 49
0.0
140
0.0
141
0.0
142
1.0
143
1.0
 70
   688
 72
     1
 73
     0
 74
     5
  7

 75
    16
147
1.0
148
0.0
149
0.0
100
AcDbLayout
  1
Layout1
 70
     1
 71
     1
 10
0.0
 20
0.0
 11
420.0
 21
297.0
 12
0.0
 22
0.0
 32
0.0
 14
1.0000000000E+20
 24
1.0000000000E+20
 34
1.0000000000E+20
 15
-1.0000000000E+20
 25
-1.0000000000E+20
 35
-1.0000000000E+20
146
0.0
 13
0.0
 23
0.0
 33
0.0
 16
1.0
 26
0.0
 36
0.0
 17
0.0
 27
1.0
 37
0.0
 76
     0
330
1B
  0
LAYOUT
  5
26
102
{ACAD_REACTORS
330
1A
102
}
330
1A
100
AcDbPlotSettings
  1

  2
none_device
  4

  6

 40
0.0
 41
0.0
 42
0.0
 43
0.0
 44
0.0
 45
0.0
 46
0.0
 47
0.0
 48
0.0
 49
0.0
140
0.0
141
0.0
142
1.0
143
1.0
 70
   688
 72
     1
 73
     0
 74
     5
  7

 75
    16
147
1.0
148
0.0
149
0.0
100
AcDbLayout
  1
Layout2
 70
     1
 71
     2
 10
0.0
 20
0.0
 11
0.0
 21
0.0
 12
0.0
 22
0.0
 32
0.0
 14
0.0
 24
0.0
 34
0.0
 15
0.0
 25
0.0
 35
0.0
146
0.0
 13
0.0
 23
0.0
 33
0.0
 16
1.0
 26
0.0
 36
0.0
 17
0.0
 27
1.0
 37
0.0
 76
     0
330
23
  0
LAYOUT
  5
22
102
{ACAD_REACTORS
330
1A
102
}
330
1A
100
AcDbPlotSettings
  1

  2
none_device
  4
Letter_(8.50_x_11.00_Inches)
  6

 40
6.35
 41
6.35
 42
6.35000508
 43
6.35000508
 44
215.9
 45
279.4
 46
0.0
 47
0.0
 48
0.0
 49
0.0
140
0.0
141
0.0
142
1.0
143
1.0
 70
  1712
 72
     1
 73
     0
 74
     0
  7

 75
     0
147
1.0
148
0.0
149
0.0
100
AcDbLayout
  1
Model
 70
     1
 71
     0
 10
0.0
 20
0.0
 11
279.4
 21
215.9
 12
0.0
 22
0.0
 32
0.0
 14
0.0
 24
0.0
 34
0.0
 15
279.4
 25
215.9
 35
0.0
146
0.0
 13
0.0
 23
0.0
 33
0.0
 16
1.0
 26
0.0
 36
0.0
 17
0.0
 27
1.0
 37
0.0
 76
     0
330
1F
331
29
  0
MLINESTYLE
  5
18
102
{ACAD_REACTORS
330
17
102
}
330
17
100
AcDbMlineStyle
  2
Standard
 70
     0
  3

 62
   256
 51
90.0
 52
90.0
 71
     2
 49
0.5
 62
   256
  6
BYLAYER
 49
-0.5
 62
   256
  6
BYLAYER
  0
ACDBPLACEHOLDER
  5
F
102
{ACAD_REACTORS
330
E
102
}
330
E
  0
SCALE
  5
48
102
{ACAD_REACTORS
330
47
102
}
330
47
100
AcDbScale
 70
     0
300
1:1
140
1.0
141
1.0
290
     1
  0
SCALE
  5
49
102
{ACAD_REACTORS
330
47
102
}
330
47
100
AcDbScale
 70
     0
300
1:2
140
1.0
141
2.0
290
     0
  0
SCALE
  5
4A
102
{ACAD_REACTORS
330
47
102
}
330
47
100
AcDbScale
 70
     0
300
1:4
140
1.0
141
4.0
290
     0
  0
SCALE
  5
4B
102
{ACAD_REACTORS
330
47
102
}
330
47
100
AcDbScale
 70
     0
300
1:5
140
1.0
141
5.0
290
     0
  0
SCALE
  5
4C
102
{ACAD_REACTORS
330
47
102
}
330
47
100
AcDbScale
 70
     0
300
1:8
140
1.0
141
8.0
290
     0
  0
SCALE
  5
4D
102
{ACAD_REACTORS
330
47
102
}
330
47
100
AcDbScale
 70
     0
300
1:10
140
1.0
141
10.0
290
     0
  0
SCALE
  5
4E
102
{ACAD_REACTORS
330
47
102
}
330
47
100
AcDbScale
 70
     0
300
1:16
140
1.0
141
16.0
290
     0
  0
SCALE
  5
4F
102
{ACAD_REACTORS
330
47
102
}
330
47
100
AcDbScale
 70
     0
300
1:20
140
1.0
141
20.0
290
     0
  0
SCALE
  5
50
102
{ACAD_REACTORS
330
47
102
}
330
47
100
AcDbScale
 70
     0
300
1:30
140
1.0
141
30.0
290
     0
  0
SCALE
  5
51
102
{ACAD_REACTORS
330
47
102
}
330
47
100
AcDbScale
 70
     0
300
1:40
140
1.0
141
40.0
290
     0
  0
SCALE
  5
52
102
{ACAD_REACTORS
330
47
102
}
330
47
100
AcDbScale
 70
     0
300
1:50
140
1.0
141
50.0
290
     0
  0
SCALE
  5
53
102
{ACAD_REACTORS
330
47
102
}
330
47
100
AcDbScale
 70
     0
300
1:100
140
1.0
141
100.0
290
     0
  0
SCALE
  5
54
102
{ACAD_REACTORS
330
47
102
}
330
47
100
AcDbScale
 70
     0
300
2:1
140
2.0
141
1.0
290
     0
  0
SCALE
  5
55
102
{ACAD_REACTORS
330
47
102
}
330
47
100
AcDbScale
 70
     0
300
4:1
140
4.0
141
1.0
290
     0
  0
SCALE
  5
56
102
{ACAD_REACTORS
330
47
102
}
330
47
100
AcDbScale
 70
     0
300
8:1
140
8.0
141
1.0
290
     0
  0
SCALE
  5
57
102
{ACAD_REACTORS
330
47
102
}
330
47
100
AcDbScale
 70
     0
300
10:1
140
10.0
141
1.0
290
     0
  0
SCALE
  5
58
102
{ACAD_REACTORS
330
47
102
}
330
47
100
AcDbScale
 70
     0
300
100:1
140
100.0
141
1.0
290
     0
  0
SCALE
  5
59
102
{ACAD_REACTORS
330
47
102
}
330
47
100
AcDbScale
 70
     0
300
1/128" = 1'-0"
140
0.0078125
141
12.0
290
     0
  0
SCALE
  5
5A
102
{ACAD_REACTORS
330
47
102
}
330
47
100
AcDbScale
 70
     0
300
1/64" = 1'-0"
140
0.015625
141
12.0
290
     0
  0
SCALE
  5
5B
102
{ACAD_REACTORS
330
47
102
}
330
47
100
AcDbScale
 70
     0
300
1/32" = 1'-0"
140
0.03125
141
12.0
290
     0
  0
SCALE
  5
5C
102
{ACAD_REACTORS
330
47
102
}
330
47
100
AcDbScale
 70
     0
300
1/16" = 1'-0"
140
0.0625
141
12.0
290
     0
  0
SCALE
  5
5D
102
{ACAD_REACTORS
330
47
102
}
330
47
100
AcDbScale
 70
     0
300
3/32" = 1'-0"
140
0.09375
141
12.0
290
     0
  0
SCALE
  5
5E
102
{ACAD_REACTORS
330
47
102
}
330
47
100
AcDbScale
 70
     0
300
1/8" = 1'-0"
140
0.125
141
12.0
290
     0
  0
SCALE
  5
5F
102
{ACAD_REACTORS
330
47
102
}
330
47
100
AcDbScale
 70
     0
300
3/16" = 1'-0"
140
0.1875
141
12.0
290
     0
  0
SCALE
  5
60
102
{ACAD_REACTORS
330
47
102
}
330
47
100
AcDbScale
 70
     0
300
1/4" = 1'-0"
140
0.25
141
12.0
290
     0
  0
SCALE
  5
61
102
{ACAD_REACTORS
330
47
102
}
330
47
100
AcDbScale
 70
     0
300
3/8" = 1'-0"
140
0.375
141
12.0
290
     0
  0
SCALE
  5
62
102
{ACAD_REACTORS
330
47
102
}
330
47
100
AcDbScale
 70
     0
300
1/2" = 1'-0"
140
0.5
141
12.0
290
     0
  0
SCALE
  5
63
102
{ACAD_REACTORS
330
47
102
}
330
47
100
AcDbScale
 70
     0
300
3/4" = 1'-0"
140
0.75
141
12.0
290
     0
  0
SCALE
  5
64
102
{ACAD_REACTORS
330
47
102
}
330
47
100
AcDbScale
 70
     0
300
1" = 1'-0"
140
1.0
141
12.0
290
     0
  0
SCALE
  5
65
102
{ACAD_REACTORS
330
47
102
}
330
47
100
AcDbScale
 70
     0
300
1-1/2" = 1'-0"
140
1.5
141
12.0
290
     0
  0
SCALE
  5
66
102
{ACAD_REACTORS
330
47
102
}
330
47
100
AcDbScale
 70
     0
300
3" = 1'-0"
140
3.0
141
12.0
290
     0
  0
SCALE
  5
67
102
{ACAD_REACTORS
330
47
102
}
330
47
100
AcDbScale
 70
     0
300
6" = 1'-0"
140
6.0
141
12.0
290
     0
  0
SCALE
  5
68
102
{ACAD_REACTORS
330
47
102
}
330
47
100
AcDbScale
 70
     0
300
1'-0" = 1'-0"
140
12.0
141
12.0
290
     0
  0
ENDSEC
  0
EOF
